Sound will begin in 5 seconds

Sultans of Swing Final Solo

01234567891011121314151617181920212223
E
B
G
D
A
E
B
0 1 2 3 4 5 6 7 8 9 10 11 12 13 14 15 16 17 18 19 20 21 22 23
Song Science #1: How Pros Use 6 Chords to Write Hit Songs
(/) Slide Up  (\) Slide Down  (h) Hammer On  (p) Pull Off  (b) Bend (r) Release (v) Vibrato

Stave 1:

E|-------------------------|--------|-----------------------------------|-----------------------------
B|--8b10v-----8--6-----8p|--6-----|--8b10r8--8-----5h8p5------------|-----------------------------
G|-------------------------|-----7--|----------------------------7h9p7--|--5h7p5-----0h2p0------------
D|-------------------------|--------|-----------------------------------|----------------------0h2p0--
A|-------------------------|--------|-----------------------------------|-----------------------------
E|-------------------------|--------|-----------------------------------|-----------------------------

Stave 2:

E|-------------------------------|-----------------------8--------------8--------------8-----------|--
B|--x--8--10p8-----6h8p6---------|---------8h10p8-----------10p8-----------10p8-----------10p8-----|--
G|---------------------------7v--|-----/9----------9--------------9--------------9--------------x--|--
D|-------------------------------|-----------------------------------------------------------------|--
A|-------------------------------|-----------------------------------------------------------------|--
E|-------------------------------|-----------------------------------------------------------------|--

Stave 3:

E|--8--------------8-----------------------|---------------10--8--------------------|----------------------
B|-----10p8-----------10p8-----------------|--8b10-----10---------10r8--10----------|--------------10------
G|-----------9--------------x-----x--x--x--|--------------------------------10------|----------10------12--
D|-----------------------------------------|------------------------------------12--|--10--12--------------
A|-----------------------------------------|----------------------------------------|----------------------
E|-----------------------------------------|----------------------------------------|----------------------

http://www.guitartabcreator.com
Guitar Tab Creator is intended to store guitar tab created through the tool. It currently does not support in-line text editing. Any text you place in here will be lost. If you need to comment on your tab, please use the "Tab Notes" section located below.