you give love a bad name (shot through the heart) Bon Jovi

01234567891011121314151617181920212223
E
B
G
D
A
E
B
0 1 2 3 4 5 6 7 8 9 10 11 12 13 14 15 16 17 18 19 20 21 22 23
(/) Slide Up  (\) Slide Down  (h) Hammer On  (p) Pull Off  (b) Bend (r) Release (v) Vibrato

Stave 1:

E|---------------------------------------------------------------------
B|---------------------------------------------------------------------
G|---------------------------------------------------------------------
D|---------------------------------------------------------------------
A|--10--10--10--11--10--8--8--10--10--10--8--10--10--8--7--4--3--6--3--
E|---------------------------------------------------------------------

Stave 2:

E|-----------------------------
B|-----------------------------
G|--0--------0-----------0-----
D|-----3--2-----3--1--------3--
A|--------------------3--------
E|-----------------------------

Stave 3:

E|-----------------------------------------------
B|-----------------------------------------------
G|-----------------------------------------------
D|--------------1--1--------------------1--1-----
A|--3-----1--3--------3--1--3-----1--3--------3--
E|-----3-----------------------3-----------------

							http://www.guitartabcreator.com
Chords

Instruments
{"strings":[[[".",".",".",".",".",".",".",".",".",".",".",".",".",".",".",".",".",".","."],[".",".",".",".",".",".",".",".",".",".",".",".",".",".",".",".",".",".","."],[".",".",".",".",".",".",".",".",".",".",".",".",".",".",".",".",".",".","."],[".",".",".",".",".",".",".",".",".",".",".",".",".",".",".",".",".",".","."],[10,10,10,11,10,8,8,10,10,10,8,10,10,8,7,4,3,6,3],[".",".",".",".",".",".",".",".",".",".",".",".",".",".",".",".",".",".","."]],[[".",".",".",".",".",".",".",".","."],[".",".",".",".",".",".",".",".","."],[0,".",".",0,".",".",".",0,"."],[".",3,2,".",3,1,".",".",3],[".",".",".",".",".",".",3,".","."],[".",".",".",".",".",".",".",".","."]],[[".",".",".",".",".",".",".",".",".",".",".",".",".",".","."],[".",".",".",".",".",".",".",".",".",".",".",".",".",".","."],[".",".",".",".",".",".",".",".",".",".",".",".",".",".","."],[".",".",".",".",1,1,".",".",".",".",".",".",1,1,"."],[3,".",1,3,".",".",3,1,3,".",1,3,".",".",3],[".",3,".",".",".",".",".",".",".",3,".",".",".",".","."]]],"numberofstrings":6,"notes":["E","B","G","D","A","E","B"],"capo":0,"stringnotes":["E4","B3","G3","D3","A2","E2"],"comments":["Stave 1:","Stave 2:","Stave 3:"],"timing":[[null,null,null,null,null,null,null,null,null,null,null,null,null,null,null,null,null,null,null,null],["W","W","W","W","W","W","W","W","W"],["W","W","W","W","W","W","W","W","W","W","W","W","W","W","W"]],"timingvisible":false,"tabcounter":15,"stave":2,"totalstaves":3,"instrument":"6guitar","selectedtuning":"6_standard","version":"13"}

Member for

2 months
Submitted by LegolasSonOfTh… on Fri, 2021-03-05 22:08