SRV - Pride and Joy style outro solo

Chords

01234567891011121314151617181920212223
E
B
G
D
A
E
B
0 1 2 3 4 5 6 7 8 9 10 11 12 13 14 15 16 17 18 19 20 21 22 23
(/) Slide Up  (\) Slide Down  (h) Hammer On  (p) Pull Off  (b) Bend (r) Release (v) Vibrato


E|-------------|-------------|----------------|---------------------------------|--
B|--2-3--3--3--|--3-5--5--5--|--5-12--12--12--|--12-15--15--15--15--15--15--15--|--
G|--3/4--4--4--|--4/6--6--6--|--6/13--13--13--|--13/16--16--16--16--16--16--16--|--
D|-------------|-------------|----------------|---------------------------------|--
A|-------------|-------------|----------------|---------------------------------|--
E|-------------|-------------|----------------|---------------------------------|--



E|-------------------------|-------------------------|-------------12--15b17--15b17--15b17--
B|--14-12------12------12--|--14-15--14--12------12--|---------12---------------------------
G|--14r12------12------12--|--14b15--14--12------12--|--14b16-------------------------------
D|---------14------14------|-----------------14------|--------------------------------------
A|-------------------------|-------------------------|--------------------------------------
E|-------------------------|-------------------------|--------------------------------------



E|--15b17--15v--|--12------------------------------------12--------------------------|--
B|--------------|------15--12--------------------------------------------------------|--
G|--------------|--------------15r14--12------12--14b16------12v---------------------|--
D|--------------|-------------------------14----------------------14r12------12--14--|--
A|--------------|--------------------------------------------------------14----------|--
E|--------------|--------------------------------------------------------------------|--



E|-------------12---------12--14--12h13r12------12----------|-------------12---------
B|---------12------15b16--------------------12------14--12--|---------12------15r12--
G|--14b16---------------------------------------------------|--14b16-----------------
D|----------------------------------------------------------|------------------------
A|----------------------------------------------------------|------------------------
E|----------------------------------------------------------|------------------------



E|-----------------------------3b4--0-----0----------------0--2--3------|--
B|-------------------------------------3-------------------0--2--3v-----|--
G|--15b14r12---------------------------------2b3--0--1------------------|--
D|------------14--12--14\5------------------------------2---------------|--
A|----------------------------------------------------------------------|--
E|--------------------------0----------------------------------------0--|--



E|--
B|--
G|--
D|--
A|--
E|--
							http://www.guitartabcreator.com
[[],[],[],[],[],[]]

Member for

8 years 4 months
Submitted by LegendaryLicks on Fri, 2012-03-09 18:48