Ladies of the woods

Chords

01234567891011121314151617181920212223
E
B
G
D
A
E
B
0 1 2 3 4 5 6 7 8 9 10 11 12 13 14 15 16 17 18 19 20 21 22 23
(/) Slide Up  (\) Slide Down  (h) Hammer On  (p) Pull Off  (b) Bend (r) Release (v) Vibrato

Stave 1:

E|-------5---3---5---1-------1-------5---3---5---6---8---5-------5---3---5---1-------1-------5---3---5---6---8---5---5---6---5---6---5---3---5---1-----------5---6---5---6---5---8---6---5---3---5---5---6---5---
B|---3-------------------4-------3---------------------------3-------------------4-------3-----------------------------------------------------------4---3-------------------------------------------------------
G|---------------------------------------------------------------------------------------------------------------------------------------------------------------------------------------------------------------
D|---------------------------------------------------------------------------------------------------------------------------------------------------------------------------------------------------------------
A|---------------------------------------------------------------------------------------------------------------------------------------------------------------------------------------------------------------
E|---------------------------------------------------------------------------------------------------------------------------------------------------------------------------------------------------------------

Stave 2:

E|---6---5---3---5---1-----------5---6---5---6---5---8---6---5---3---5---
B|-----------------------4---2-------------------------------------------
G|-----------------------------------------------------------------------
D|-----------------------------------------------------------------------
A|-----------------------------------------------------------------------
E|-----------------------------------------------------------------------

							http://www.guitartabcreator.com
Instruments
{"strings":[[[".",5,3,5,1,".",1,".",5,3,5,6,8,5,".",5,3,5,1,".",1,".",5,3,5,6,8,5,5,6,5,6,5,3,5,1,".",".",5,6,5,6,5,8,6,5,3,5,5,6,5],[3,".",".",".",".",4,".",3,".",".",".",".",".",".",3,".",".",".",".",4,".",3,".",".",".",".",".",".",".",".",".",".",".",".",".",".",4,3,".",".",".",".",".",".",".",".",".",".",".",".","."],[".",".",".",".",".",".",".",".",".",".",".",".",".",".",".",".",".",".",".",".",".",".",".",".",".",".",".",".",".",".",".",".",".",".",".",".",".",".",".",".",".",".",".",".",".",".",".",".",".",".","."],[".",".",".",".",".",".",".",".",".",".",".",".",".",".",".",".",".",".",".",".",".",".",".",".",".",".",".",".",".",".",".",".",".",".",".",".",".",".",".",".",".",".",".",".",".",".",".",".",".",".","."],[".",".",".",".",".",".",".",".",".",".",".",".",".",".",".",".",".",".",".",".",".",".",".",".",".",".",".",".",".",".",".",".",".",".",".",".",".",".",".",".",".",".",".",".",".",".",".",".",".",".","."],[".",".",".",".",".",".",".",".",".",".",".",".",".",".",".",".",".",".",".",".",".",".",".",".",".",".",".",".",".",".",".",".",".",".",".",".",".",".",".",".",".",".",".",".",".",".",".",".",".",".","."]],[[6,5,3,5,1,".",".",5,6,5,6,5,8,6,5,3,5],[".",".",".",".",".",4,2,".",".",".",".",".",".",".",".",".","."],[".",".",".",".",".",".",".",".",".",".",".",".",".",".",".",".","."],[".",".",".",".",".",".",".",".",".",".",".",".",".",".",".",".","."],[".",".",".",".",".",".",".",".",".",".",".",".",".",".",".",".","."],[".",".",".",".",".",".",".",".",".",".",".",".",".",".",".",".","."]]],"numberofstrings":6,"notes":["E","B","G","D","A","E","B"],"capo":0,"stringnotes":["E4","B3","G3","D3","A2","E2"],"comments":["Stave 1:","Stave 2:"],"timing":[["W","W","W","W","W","W","W","W","W","W","W","W","W","W","W","W","W","W","W","W","W","W","W","W","W","W","W","W","W","W","W","W","W","W","W","W","W","W","W","W","W","W","W","W","W","W","W","W","W","W","W"],["W","W","W","W","W","W","W","W","W","W","W","W","W","W","W","W","W"]],"timingvisible":false,"tabcounter":17,"stave":1,"totalstaves":2,"instrument":"6guitar","selectedtuning":"6_standard","version":"13"}

Member for

1 week 4 days
About Me
newbie
Submitted by legan on Mon, 2020-09-14 15:09