Sound will begin in 5 seconds

first song

Chords
01234567891011121314151617181920212223
E
B
G
D
A
E
B
0 1 2 3 4 5 6 7 8 9 10 11 12 13 14 15 16 17 18 19 20 21 22 23
Song Science #1: How Pros Use 6 Chords to Write Hit Songs
(/) Slide Up  (\) Slide Down  (h) Hammer On  (p) Pull Off  (b) Bend (r) Release (v) Vibrato

Stave 1:

E|--------------
B|--------------
G|--------------
D|--5--4--------
A|--------5--7--
E|--------------

Stave 2:

E|--------------
B|--------------
G|--------------
D|--5--4--4--5--
A|--7--5--5--7--
E|--------------

Stave 3:

E|------------------------------------------------------------------
B|------------------------------------------------------------------
G|------------------------------------------------------------------
D|--5--4--2--9---5--4--2--9---10--5--4--9---10--12--5--4--2--9---7--
A|--7--5--3--10--7--5--3--10--12--7--5--10--12--14--7--5--3--10--9--
E|------------------------------------------------------------------

Stave 4:

E|-----------------------------
B|-----------------------------
G|-----------------------------
D|--5--4--5--4--5--4--5--7--9--
A|--7--7--7--7--7--7--7--7--7--
E|-----------------------------

Stave 5:

E|----------------
B|----------------
G|----------------
D|--12--9---7--9--
A|--10--10--9--9--
E|----------------

Stave 6:

E|-----------------
B|-----------------
G|-----------------
D|--5--4--2--2--3--
A|--7--5--3--0--0--
E|-----------------

Stave 7:

E|-----------------
B|-----------------
G|-----------------
D|--5--4--2--2--4--
A|--7--5--3--0--0--
E|-----------------

Stave 8:

E|--------------------------
B|--------------------------
G|--------------------------
D|--5--4--2--2--4--4--5--7--
A|--7--5--3--0--0--2--3--5--
E|--------------------------

Stave 9:

E|-------------------------------
B|-------------------------------
G|--9--12--9--12--9--14--11--12--
D|--9--12--9--12--9--12----------
A|--7--10--7--10--7--12--9---10--
E|-------------------------------

Stave 10:

E|-----------------------------------------------------------------
B|-----------------------------------------------------------------
G|--9--5--4--12--12--9--4--5--7--9--5--5--12--11--9--4--5--12--11--
D|--9--5--4--12--12--------------9--5--5--12--11-------------------
A|--7--3--2--10--9---7--2--3--5--7--3--2----------7--2--3--10--9---
E|--0--3--2--10--9---0-----------0--3--2--10--9---0----------------

http://www.guitartabcreator.com
Guitar Tab Creator is intended to store guitar tab created through the tool. It currently does not support in-line text editing. Any text you place in here will be lost. If you need to comment on your tab, please use the "Tab Notes" section located below.