Sound will begin in 5 seconds

Majora's Mask - Song of Healing for Ukulele

Chords
01234567891011121314151617181920212223
E
B
G
D
A
E
B
0 1 2 3 4 5 6 7 8 9 10 11 12 13 14 15 16 17 18 19 20 21 22 23
(/) Slide Up  (\) Slide Down  (h) Hammer On  (p) Pull Off  (b) Bend (r) Release (v) Vibrato

Stave 1: x2

A |--2-----------------2-----------------2-----------------------------
Eb|--2-----------2-----2-----------2-----2-----------1-----1--2--2--2--
B |--1--1-----1--1--1--1--1-----1--1--1--1--1-----1-----3-----3--3--3--
G |--2-----2-----------2-----2-----------2-----2--------------4--4--4--

Stave 2:

A |--------------------------------------------------------0--------------
Eb|--9------9-----8-----9------9-----8-----9------8-----8--6--8--2--2--2--
B |--6---6-----6-----6--6---6-----6-----6--6---5--5--5--7--4--7--3--3--3--
G |--10-----------------10-----------------10-----------------4--4--4--4--

Stave 3:

A |-----------------------------------------------------2-----2-----------
Eb|--9------9-----8-----9------9-----8-----9------8-----1--1--4--2--2--2--
B |--6---6-----6-----6--6---6-----6-----6--6---5--5--5--------3--3--3--3--
G |--10-----------------10-----------------10-----------------0--4--4--4--

Stave 4:

A |-----------5--5--5-----------3-----------3--
Eb|--6--6--6--6--6--6--1--1--1--1--1--4--1-----
B |--6--6--6--------------------1-----3--------
G |--------------------0--0--0--------0--------

Stave 5:

A |-----------2--2--2-----------------------------
Eb|--2--2--2--2--2--2--1----------6--1---------6--
B |--3--3--3-----------1--1/3--3--5--1--1/3\1-----
G |-----------------------------------------------

Stave 6:

A |-----------5--5--5-----------3-----------3--
Eb|--6--6--6--6--6--6--1--1--1--1--1--4--1-----
B |--6--6--6--------------------1-----3--------
G |--------------------0--0--0--------0--------

Stave 7:

A |--------------------0------------------------0------------7--------7--
Eb|--2-----2-----2-----8-----9-----11-----6-----8-----11-----8-----8-----
B |-----1--1--1--1--1--6--6--6--6--6---6--6--6--6--6--6---6--9--9--------
G |--------0-----2-----------------7------------------7------------------

Stave 8: Repeat Stave 1 (x2)

A |--
Eb|--
B |--
G |--

http://www.guitartabcreator.com
Guitar Tab Creator is intended to store guitar tab created through the tool. It currently does not support in-line text editing. Any text you place in here will be lost. If you need to comment on your tab, please use the "Tab Notes" section located below.