Tan solo - Los Piojos

Chords

01234567891011121314151617181920212223
E
B
G
D
A
E
B
0 1 2 3 4 5 6 7 8 9 10 11 12 13 14 15 16 17 18 19 20 21 22 23
(/) Slide Up  (\) Slide Down  (h) Hammer On  (p) Pull Off  (b) Bend (r) Release (v) Vibrato

Línea principal

G|-----------------------|-----------5-----------|-----------------------|-----------------------|--
D|--5-----5--------5--4--|--3-----3-----3--------|-----------2--2--3--4--|--5-----5--------3--4--|--
A|-----------5--5--------|-----------------5--4--|--3-----3--------------|-----------5--5--------|--
E|-----------------------|-----------------------|-----------------------|-----------------------|--

Salta, la cuerda

G|--------------|--------------|-----------------------|-----------------------|--------------|--------------|-----------------------|-----------------------|--
D|--5-----5--5--|--3-----3--3--|-----------------3--4--|--5-----5--5-----3--4--|--5-----5--5--|--3-----3--3--|-----------------3--4--|--5-----5--5-----3--4--|--
A|--------------|--------------|--3-----3--3-----------|-----------------------|--------------|--------------|--3-----3--3-----------|-----------------------|--
E|--------------|--------------|-----------------------|-----------------------|--------------|--------------|-----------------------|-----------------------|--



G|--------------|--------3--3-----2-----|-----------------------|-----------------------|--------------|--------------|-----------------------|--------------
D|--5-----5--5--|--3-----------------5--|-----------------3--4--|--5-----5--5-----3--4--|--5-----5--5--|--3-----3--3--|-----------------3--4--|--5-----5--5--
A|--------------|-----------------------|--3-----3--3-----------|-----------------------|--------------|--------------|--3-----3--3-----------|--------------
E|--------------|-----------------------|-----------------------|-----------------------|--------------|--------------|-----------------------|--------------

Repite línea principal y va al final

G|--------------------------|--------------------------|--------------------------|--------------------------|--------------------------|--------------------
D|--5--5--5--5--5--5--5--5--|--3--3--3--3--3--3--3--3--|--------------------3--4--|--5--5--5--5--5--5--3--4--|--5--5--5--5--5--5--------|--------------------
A|--------------------------|--------------------------|--3--3--3--3--3--3--------|--------------------------|--------------------6--7--|--8--8--8--8--8--8--
E|--------------------------|--------------------------|--------------------------|--------------------------|--------------------------|--------------------

Continúa del anterior

G|--------|--------------------------|------------------------
D|--------|--------------------------|------------------------
A|--------|--------------------8--9--|-----10--10-----10--10--
E|--6--7--|--8--8--8--8--8--8--------|------------------------

							http://www.guitartabcreator.com
genre
Instruments
{"strings":[[[".","_",".",".",".",".",".","|",".","_",".",5,".",".",".","|",".","_",".",".",".",".",".","|",".","_",".",".",".",".",".","|"],[5,"_",5,".",".",5,4,"|",3,"_",3,".",3,".",".","|",".","_",".",2,2,3,4,"|",5,"_",5,".",".",3,4,"|"],[".","_",".",5,5,".",".","|",".","_",".",".",".",5,4,"|",3,"_",3,".",".",".",".","|",".","_",".",5,5,".",".","|"],[".","_",".",".",".",".",".","|",".","_",".",".",".",".",".","|",".","_",".",".",".",".",".","|",".","_",".",".",".",".",".","|"]],[[".","_",".",".","|",".","_",".",".","|",".","_",".",".","_",".",".","|",".","_",".",".","_",".",".","|",".","_",".",".","|",".","_",".",".","|",".","_",".",".","_",".",".","|",".","_",".",".","_",".",".","|"],[5,"_",5,5,"|",3,"_",3,3,"|",".","_",".",".","_",3,4,"|",5,"_",5,5,"_",3,4,"|",5,"_",5,5,"|",3,"_",3,3,"|",".","_",".",".","_",3,4,"|",5,"_",5,5,"_",3,4,"|"],[".","_",".",".","|",".","_",".",".","|",3,"_",3,3,"_",".",".","|",".","_",".",".","_",".",".","|",".","_",".",".","|",".","_",".",".","|",3,"_",3,3,"_",".",".","|",".","_",".",".","_",".",".","|"],[".","_",".",".","|",".","_",".",".","|",".","_",".",".","_",".",".","|",".","_",".",".","_",".",".","|",".","_",".",".","|",".","_",".",".","|",".","_",".",".","_",".",".","|",".","_",".",".","_",".",".","|"]],[[".","_",".",".","|",".","_",3,3,"_",2,".","|",".","_",".",".","_",".",".","|",".","_",".",".","_",".",".","|",".","_",".",".","|",".","_",".",".","|",".","_",".",".","_",".",".","|",".","_",".","."],[5,"_",5,5,"|",3,"_",".",".","_",".",5,"|",".","_",".",".","_",3,4,"|",5,"_",5,5,"_",3,4,"|",5,"_",5,5,"|",3,"_",3,3,"|",".","_",".",".","_",3,4,"|",5,"_",5,5],[".","_",".",".","|",".","_",".",".","_",".",".","|",3,"_",3,3,"_",".",".","|",".","_",".",".","_",".",".","|",".","_",".",".","|",".","_",".",".","|",3,"_",3,3,"_",".",".","|",".","_",".","."],[".","_",".",".","|",".","_",".",".","_",".",".","|",".","_",".",".","_",".",".","|",".","_",".",".","_",".",".","|",".","_",".",".","|",".","_",".",".","|",".","_",".",".","_",".",".","|",".","_",".","."]],[[".",".",".",".",".",".",".",".","|",".",".",".",".",".",".",".",".","|",".",".",".",".",".",".",".",".","|",".",".",".",".",".",".",".",".","|",".",".",".",".",".",".",".",".","|",".",".",".",".",".","."],[5,5,5,5,5,5,5,5,"|",3,3,3,3,3,3,3,3,"|",".",".",".",".",".",".",3,4,"|",5,5,5,5,5,5,3,4,"|",5,5,5,5,5,5,".",".","|",".",".",".",".",".","."],[".",".",".",".",".",".",".",".","|",".",".",".",".",".",".",".",".","|",3,3,3,3,3,3,".",".","|",".",".",".",".",".",".",".",".","|",".",".",".",".",".",".",6,7,"|",8,8,8,8,8,8],[".",".",".",".",".",".",".",".","|",".",".",".",".",".",".",".",".","|",".",".",".",".",".",".",".",".","|",".",".",".",".",".",".",".",".","|",".",".",".",".",".",".",".",".","|",".",".",".",".",".","."]],[[".",".","|",".",".",".",".",".",".",".",".","|","_",".",".","_",".","."],[".",".","|",".",".",".",".",".",".",".",".","|","_",".",".","_",".","."],[".",".","|",".",".",".",".",".",".",8,9,"|","_",10,10,"_",10,10],[6,7,"|",8,8,8,8,8,8,".",".","|","_",".",".","_",".","."]]],"numberofstrings":4,"notes":["G","D","A","E"],"capo":0,"stringnotes":["G2","D2","A1","E1"],"comments":["Línea principal","Salta, la cuerda","","Repite línea principal y va al final","Continúa del anterior"],"timing":[["W","W","W","W","W","W","W","W","W","W","W","W","W","W","W","W","W","W","W","W","W","W","W","W","W","W","W","W","W","W","W"],["W","W","W","W",null,"W",null,"W","W",null,"W",null,"W","W",null,"W","W",null,"W",null,"W","W",null,"W","W",null,"W",null,"W","W",null,"W",null,"W","W",null,"W",null,"W","W",null,"W","W",null,"W",null,"W","W",null,"W","W"],["W",null,"W","W",null,"W",null,"W","W",null,"W","W",null,"W",null,"W","W",null,"W","W",null,"W",null,"W","W",null,"W","W",null,"W",null,"W","W",null,"W",null,"W","W",null,"W",null,"W","W",null,"W","W",null,"W",null,"W","W"],["W","W","W","W","W","W","W","W",null,"W","W","W","W","W","W","W","W",null,"W","W","W","W","W","W","W","W",null,"W","W","W","W","W","W","W","W",null,"W","W","W","W","W","W","W","W",null,"W","W","W","W","W","W"],["W","W",null,"W","W","W","W","W","W","W","W",null,null,"W","W",null,"W","W"]],"timingvisible":false,"tabcounter":18,"stave":4,"totalstaves":5,"instrument":"4bass","selectedtuning":"4bass","version":"13"}

Member for

2 months
About Me
Bass Player
Submitted by Leandro Tognetti on Fri, 2020-11-13 21:10