Sobredosis de TV - Soda Stereo

01234567891011121314151617181920212223
E
B
G
D
A
E
B
0 1 2 3 4 5 6 7 8 9 10 11 12 13 14 15 16 17 18 19 20 21 22 23
(/) Slide Up  (\) Slide Down  (h) Hammer On  (p) Pull Off  (b) Bend (r) Release (v) Vibrato

Estrofa 1 (en la intro hace lo mismo)

G|--------------------|--------------------|--------------------|--------------|--------------------|--------------------|--------------------|-----------|--
D|--------------------|--------------------|--------------------|--------------|--------------------|--------------------|--------------------|-----------|--
A|--------------------|--------------------|--------------------|--2-----------|--------------------|--------------------|--------------------|--2--------|--
E|--2-----2--2-----2--|--0-----0--0-----0--|--2-----2--2-----2--|--------------|--2-----2--2-----2--|--0-----0--0-----0--|--2-----2--2-----2--|-----------|--

Estrofa continuación

G|--------------------|--------------------|--------------------|--------4-----4--|--------------------|--------------------|--------------------|--
D|--------------------|--------------------|--------------------|-----------------|--------------------|--------------------|--------------------|--
A|--------------------|--------------------|--------------------|--2--------2-----|--------------------|--------------------|--------------------|--
E|--2-----2--2-----2--|--0-----0--0-----0--|--2-----2--2-----2--|-----------------|--2-----2--2-----2--|--0-----0--0-----0--|--2-----2--2-----2--|--

Última parte de la estrofa

G|--------4--4h6--
D|----------------
A|----------------
E|--2-------------

Estribillo

G|-----------6/|--9--9--9--9--|--------------|-----------------6--|-----------6h|--9--9--9--9--|--------------|--------------|-----------6/|--
D|-------------|--------------|--------------|--------------------|-------------|--------------|--------------|--7--7--------|-------------|--
A|--4--4-------|--------------|--------------|--------------------|--4--4-------|--------------|--------------|--------7-----|--4--4-------|--
E|-------------|--------------|--6--6-----6--|--5--5--5--5--------|-------------|--------------|--6--6-----6--|-----------5--|-------------|--

Estribillo continuación

G|--9--9--9--9--|--------------|-----------------6--|-----------6/|--9--9--9--9--|-------------|-----------------|--
D|--------------|--------------|--------------------|-------------|--------------|-------------|--------7--------|--
A|--------------|--------------|--------------------|--4--4-------|--------------|-------------|-----------------|--
E|--------------|--6--6-----6--|--5--5--5--5--------|-------------|--------------|--6--6-----5h|--5-----------5--|--

Estrofa 2

G|-----------------|--------------------|--------------------|-----|--------------------|--------------------|--------------------|--------1h3--1h3--
D|-----------------|--------------------|--------------------|-----|--------------------|--------------------|--------------------|------------------
A|-----------------|--------------------|--------------------|--2--|--------------------|--------------------|--------------------|--2---------------
E|--2-----2--2--2--|--0-----0--0-----0--|--2-----2--2-----2--|-----|--2-----2--2-----2--|--0-----0--0-----0--|--2-----2--2-----2--|------------------

Estrofa 2 continuación

G|-----------------|--------------------|--------------------|--------4-----4--|--------------------|--------------------|--------------------|-----
D|-----------------|--------------------|--------------------|-----------------|--------------------|--------------------|--------------------|-----
A|-----------------|--------------------|--------------------|--2--------2-----|--------------------|--------------------|--------------------|--2--
E|--2--2--2-----2--|--0-----0--0-----0--|--2-----2--2-----2--|-----------------|--2-----2--2-----2--|--0-----0--0-----0--|--2-----2--2-----2--|-----

Arreglo post estribillo (luego hace otra vez el estribillo y va al cierre)

G|-------------------------------|--------------------|--------------------------------|--
D|--------------9/11--9-----7/9--|--------------------|-----------4--------------------|--
A|--------7----------------------|--------------------|--------------------------------|--
E|--5----------------------------|--2--2-----2--2-----|--2-----2--------2--2-----2--2--|--

Puente instrumental - luego, final

G|--------8/|--9-----------|----------|-------------|----------|--------------|----------|--------|--
D|----------|--------9h11--|--9-------|-------------|----------|--------9/11--|--9-----8/|--9-----|--
A|----------|--------------|--------6/|--7----------|--------6/|--7-----------|----------|--------|--
E|--5-------|--------------|----------|--------6/7--|--5-------|--------------|----------|--------|--

Final (puede ser con slap o ataque fuerte con púa y medios y agudos más definidos)

G|--------------------6-----6--|--------------------2h4--|--------------------2h4--|--------------------4-----4--|--
D|-----------------------------|-------------------------|-------------------------|-----------------------------|--
A|--4--4--4--4-----4-----4-----|-------------------------|--2--2--2--2--2----------|--2--2--2--2--2--------2-----|--
E|-----------------------------|--5--5--5--5--5----------|-------------------------|-----------------------------|--

							http://www.guitartabcreator.com
Chords

genre
Instruments
{"strings":[[[".","_",".",".","_",".","|",".","_",".",".","_",".","|",".","_",".",".","_",".","|",".","_","_","_","|",".","_",".",".","_",".","|",".","_",".",".","_",".","|",".","_",".",".","_",".","|",".","_","_","|"],[".","_",".",".","_",".","|",".","_",".",".","_",".","|",".","_",".",".","_",".","|",".","_","_","_","|",".","_",".",".","_",".","|",".","_",".",".","_",".","|",".","_",".",".","_",".","|",".","_","_","|"],[".","_",".",".","_",".","|",".","_",".",".","_",".","|",".","_",".",".","_",".","|",2,"_","_","_","|",".","_",".",".","_",".","|",".","_",".",".","_",".","|",".","_",".",".","_",".","|",2,"_","_","|"],[2,"_",2,2,"_",2,"|",0,"_",0,0,"_",0,"|",2,"_",2,2,"_",2,"|",".","_","_","_","|",2,"_",2,2,"_",2,"|",0,"_",0,0,"_",0,"|",2,"_",2,2,"_",2,"|",".","_","_","|"]],[[".","_",".",".","_",".","|",".","_",".",".","_",".","|",".","_",".",".","_",".","|",".","_",4,".",4,"|",".","_",".",".","_",".","|",".","_",".",".","_",".","|",".","_",".",".","_",".","|"],[".","_",".",".","_",".","|",".","_",".",".","_",".","|",".","_",".",".","_",".","|",".","_",".",".",".","|",".","_",".",".","_",".","|",".","_",".",".","_",".","|",".","_",".",".","_",".","|"],[".","_",".",".","_",".","|",".","_",".",".","_",".","|",".","_",".",".","_",".","|",2,"_",".",2,".","|",".","_",".",".","_",".","|",".","_",".",".","_",".","|",".","_",".",".","_",".","|"],[2,"_",2,2,"_",2,"|",0,"_",0,0,"_",0,"|",2,"_",2,2,"_",2,"|",".","_",".",".",".","|",2,"_",2,2,"_",2,"|",0,"_",0,0,"_",0,"|",2,"_",2,2,"_",2,"|"]],[[".","_",4,4,"h",6],[".","_",".",".",".","."],[".","_",".",".",".","."],[2,"_",".",".",".","."]],[[".",".","_",6,"/","|",9,9,9,9,"|",".",".","_",".","|",".",".",".",".","_",6,"|",".",".","_",6,"h","|",9,9,9,9,"|",".",".","_",".","|",".",".",".",".","|",".",".","_",6,"/","|"],[".",".","_",".",".","|",".",".",".",".","|",".",".","_",".","|",".",".",".",".","_",".","|",".",".","_",".",".","|",".",".",".",".","|",".",".","_",".","|",7,7,".",".","|",".",".","_",".",".","|"],[4,4,"_",".",".","|",".",".",".",".","|",".",".","_",".","|",".",".",".",".","_",".","|",4,4,"_",".",".","|",".",".",".",".","|",".",".","_",".","|",".",".",7,".","|",4,4,"_",".",".","|"],[".",".","_",".",".","|",".",".",".",".","|",6,6,"_",6,"|",5,5,5,5,"_",".","|",".",".","_",".",".","|",".",".",".",".","|",6,6,"_",6,"|",".",".",".",5,"|",".",".","_",".",".","|"]],[[9,9,9,9,"|",".",".","_",".","|",".",".",".",".","_",6,"|",".",".","_",6,"/","|",9,9,9,9,"|",".",".","_",".",".","|",".","_",".","_",".","|"],[".",".",".",".","|",".",".","_",".","|",".",".",".",".","_",".","|",".",".","_",".",".","|",".",".",".",".","|",".",".","_",".",".","|",".","_",7,"_",".","|"],[".",".",".",".","|",".",".","_",".","|",".",".",".",".","_",".","|",4,4,"_",".",".","|",".",".",".",".","|",".",".","_",".",".","|",".","_",".","_",".","|"],[".",".",".",".","|",6,6,"_",6,"|",5,5,5,5,"_",".","|",".",".","_",".",".","|",".",".",".",".","|",6,6,"_",5,"h","|",5,"_",".","_",5,"|"]],[[".","_",".",".",".","|",".","_",".",".","_",".","|",".","_",".",".","_",".","|",".","|",".","_",".",".","_",".","|",".","_",".",".","_",".","|",".","_",".",".","_",".","|",".","_",1,"h",3,1,"h",3],[".","_",".",".",".","|",".","_",".",".","_",".","|",".","_",".",".","_",".","|",".","|",".","_",".",".","_",".","|",".","_",".",".","_",".","|",".","_",".",".","_",".","|",".","_",".",".",".",".",".","."],[".","_",".",".",".","|",".","_",".",".","_",".","|",".","_",".",".","_",".","|",2,"|",".","_",".",".","_",".","|",".","_",".",".","_",".","|",".","_",".",".","_",".","|",2,"_",".",".",".",".",".","."],[2,"_",2,2,2,"|",0,"_",0,0,"_",0,"|",2,"_",2,2,"_",2,"|",".","|",2,"_",2,2,"_",2,"|",0,"_",0,0,"_",0,"|",2,"_",2,2,"_",2,"|",".","_",".",".",".",".",".","."]],[[".",".",".","_",".","|",".","_",".",".","_",".","|",".","_",".",".","_",".","|",".","_",4,".",4,"|",".","_",".",".","_",".","|",".","_",".",".","_",".","|",".","_",".",".","_",".","|","."],[".",".",".","_",".","|",".","_",".",".","_",".","|",".","_",".",".","_",".","|",".","_",".",".",".","|",".","_",".",".","_",".","|",".","_",".",".","_",".","|",".","_",".",".","_",".","|","."],[".",".",".","_",".","|",".","_",".",".","_",".","|",".","_",".",".","_",".","|",2,"_",".",2,".","|",".","_",".",".","_",".","|",".","_",".",".","_",".","|",".","_",".",".","_",".","|",2],[2,2,2,"_",2,"|",0,"_",0,0,"_",0,"|",2,"_",2,2,"_",2,"|",".","_",".",".",".","|",2,"_",2,2,"_",2,"|",0,"_",0,0,"_",0,"|",2,"_",2,2,"_",2,"|","."]],[[".","_",".","_",".",".",".",".","_",".",".",".","|",".",".","_",".",".","_","|",".","_",".",".","_",".",".","_",".",".","|"],[".","_",".","_",9,"/",11,9,"_",7,"/",9,"|",".",".","_",".",".","_","|",".","_",".",4,"_",".",".","_",".",".","|"],[".","_",7,"_",".",".",".",".","_",".",".",".","|",".",".","_",".",".","_","|",".","_",".",".","_",".",".","_",".",".","|"],[5,"_",".","_",".",".",".",".","_",".",".",".","|",2,2,"_",2,2,"_","|",2,"_",2,".","_",2,2,"_",2,2,"|"]],[[".","_",8,"/","|",9,"_",".",".",".","|",".","_",".",".","|",".","_",".",".",".","|",".","_",".",".","|",".","_",".",".",".","|",".","_",".",".","|",".","_","|"],[".","_",".",".","|",".","_",9,"h",11,"|",9,"_",".",".","|",".","_",".",".",".","|",".","_",".",".","|",".","_",9,"/",11,"|",9,"_",8,"/","|",9,"_","|"],[".","_",".",".","|",".","_",".",".",".","|",".","_",6,"/","|",7,"_",".",".",".","|",".","_",6,"/","|",7,"_",".",".",".","|",".","_",".",".","|",".","_","|"],[5,"_",".",".","|",".","_",".",".",".","|",".","_",".",".","|",".","_",6,"/",7,"|",5,"_",".",".","|",".","_",".",".",".","|",".","_",".",".","|",".","_","|"]],[[".",".",".",".","_",".",6,".",6,"|",".",".",".",".",".","_",2,"h",4,"|",".",".",".",".",".","_",2,"h",4,"|",".",".",".",".",".","_",4,".",4,"|"],[".",".",".",".","_",".",".",".",".","|",".",".",".",".",".","_",".",".",".","|",".",".",".",".",".","_",".",".",".","|",".",".",".",".",".","_",".",".",".","|"],[4,4,4,4,"_",4,".",4,".","|",".",".",".",".",".","_",".",".",".","|",2,2,2,2,2,"_",".",".",".","|",2,2,2,2,2,"_",".",2,".","|"],[".",".",".",".","_",".",".",".",".","|",5,5,5,5,5,"_",".",".",".","|",".",".",".",".",".","_",".",".",".","|",".",".",".",".",".","_",".",".",".","|"]]],"numberofstrings":4,"notes":["G","D","A","E"],"capo":0,"stringnotes":["G2","D2","A1","E1"],"comments":["Estrofa 1 (en la intro hace lo mismo)","Estrofa continuación","Última parte de la estrofa","Estribillo","Estribillo continuación","Estrofa 2","Estrofa 2 continuación","Arreglo post estribillo (luego hace otra vez el estribillo y va al cierre)","Puente instrumental - luego, final","Final (puede ser con slap o ataque fuerte con púa y medios y agudos más definidos)"],"timing":[["W",null,"W","W",null,"W",null,"W",null,"W","W",null,"W",null,"W",null,"W","W",null,"W",null,"W",null,null,null,null,"E",null,"E","E","E","E","E","E",null,"E","E",null,"E",null,"E",null,"E","E",null,"E",null,"E"],["E",null,"E","E",null,"E","E","E","E","E","E",null,"E",null,"E",null,"E","E",null,"E",null,"E",null,"E","E","E",null,"E",null,"E","E",null,"E",null,"E",null,"E","E",null,"E",null,"E",null,"E","E",null,"E",null,"E","E","E","E"],["E",null,"E","E",null,"E"],["E","E","E","E",null,"E","E","E","E","E",null,"E","E",null,"E",null,"E","E","E","E","E","E",null,"E","E",null,"E",null,null,"E","E","E","E",null,"E","E",null,"E",null,"E","E","E","E",null,"E","E",null,"E",null,null,"E"],["E","E","E","E",null,"E","E",null,"E",null,"E","E","E","E",null,"E",null,"E","E",null,"E",null,null,"E","E","E","E",null,"E","E","E","E","E",null,"E",null,"E",null,"E"],["E",null,"E","E","E",null,"E",null,"E","E",null,"E",null,"E",null,"E","E",null,"E",null,"E",null,"E",null,"E","E",null,"E","E","E","E","E","E","E","E","E","E","E","E","E","E","E","E","E","E","E","E","E","E","E","E"],["E","E","E",null,"E",null,"E",null,"E","E",null,"E",null,"E",null,"E","E",null,"E",null,"E",null,"E","E","E",null,"E",null,"E","E",null,"E","E","E","E","E","E","E","E","E","E","E","E","E","E","E","E","E"],["E",null,"E","E","E","E","E","E",null,"E",null,"E",null,"E","E",null,"E","E",null,null,"E",null,"E","E",null,"E","E",null,"E","E"],["W",null,"W",null,null,"W",null,"W",null,"W",null,"W",null,"W",null,null,"W",null,"W",null,"W","W","W",null,"W",null,null,"W",null,"W",null,"W",null,"W",null,"W",null,"W","W"],["W","W","W","W",null,"W","W","W","W",null,"W","W","W","W","W",null,"W",null,"W",null,"W","W","W","W","W",null,"W",null,"W",null,"W","W","W","W","W",null,"W","W","W"]],"timingvisible":false,"tabcounter":40,"stave":9,"totalstaves":10,"instrument":"4bass","selectedtuning":"4bass","version":"13"}

Member for

2 months 1 week
About Me
Bass Player
Submitted by Leandro Tognetti on Tue, 2020-11-24 19:23