Me gustas mucho - Viejas Locas

01234567891011121314151617181920212223
E
B
G
D
A
E
B
0 1 2 3 4 5 6 7 8 9 10 11 12 13 14 15 16 17 18 19 20 21 22 23
(/) Slide Up  (\) Slide Down  (h) Hammer On  (p) Pull Off  (b) Bend (r) Release (v) Vibrato

Intro y base

G|--------------------------|----------------------------|-
D|--------------------------|----------------------------|-
A|----------------------7-5-|----------------------7-5---|-
E|-0----0-0----0-0----0-----|-0----0-0----0-0----0-----7-|-

Estribillo (me gustas mucho)

G|--------------------------------------------------------|-------------------------------------------------------|-
D|--------------------------------------------------------|-------------------------------------------------------|-
A|--------------------------------------------------4-----|------------------------7-5------------------------7-5-|-
E|-5----5-5----5-5----5-5----5-5----5-5----5-5----5---5-3-|-0----0-0----0-0----5/7-----0----0-0----0-0----5/7-----|-

Segundo estribillo igual al primero pero cierra con Si7

G|------------------------------------------------------|-
D|------------------------------------------------------|-
A|--------9-9----7-7----6-6-----------9-9----7-7----6-6-|-
E|-7-7-------------------------7-7----------------------|-

Instrumental La7 Mi7 dos veces

G|---------------------------------------------|----------------------------|----------------------------|-
D|---------------------------------------------|----------------------------|----------------------------|-
A|-----------------------------7----5----------|------------------------7-5-|------------------------7-5-|-
E|-5----5-5----5-5----5-5----5-----------7-5-3-|-0----0-0----0-0----5/7-----|-0----0-0----0-0----5/7-----|-

Cierra el intrumental con Si7 Mi7 (y repite todo el instrumental una vez más)

G|--------------------------|-------------------|-------------------------------------------------------|-
D|--------------------------|-------------------|-------------------------------------------------------|-
A|--------9-9----7-7----6---|-9-7----5----------|------------------------7-5------------------------7-5-|-
E|-7-7--------------------7-|-------------7-5-3-|-0----0-0----0-0----5/7-----0----0-0----0-0----5/7-----|-

Hace todo el estribillo completo La7 Mi7  Si7 y cierra con este arreglo que es rítmicamente un poco difícil)

G|--------------------------------|------------------------|-
D|--------------2-----------------|------------------------|-
A|----------2-4------5-4-2--------|------------------------|-
E|-0----2h4----------------4-2----|-0----------------------|-

							http://www.guitartabcreator.com
Chords

Instruments
{"strings":[[[".","_",".",".","_",".",".","_",".",".",".","|",".","_",".",".","_",".",".","_",".",".",".",".","|"],[".","_",".",".","_",".",".","_",".",".",".","|",".","_",".",".","_",".",".","_",".",".",".",".","|"],[".","_",".",".","_",".",".","_",".",7,5,"|",".","_",".",".","_",".",".","_",".",7,5,".","|"],[0,"_",0,0,"_",0,0,"_",0,".",".","|",0,"_",0,0,"_",0,0,"_",0,".",".",7,"|"]],[[".","_",".",".","_",".",".","_",".",".","_",".",".","_",".",".","_",".",".","_",".",".",".",".","|",".","_",".",".","_",".",".","_",".",".",".",".",".",".","_",".",".","_",".",".","_",".",".",".",".",".","|"],[".","_",".",".","_",".",".","_",".",".","_",".",".","_",".",".","_",".",".","_",".",".",".",".","|",".","_",".",".","_",".",".","_",".",".",".",".",".",".","_",".",".","_",".",".","_",".",".",".",".",".","|"],[".","_",".",".","_",".",".","_",".",".","_",".",".","_",".",".","_",".",".","_",".",4,".",".","|",".","_",".",".","_",".",".","_",".",".",".",7,5,".","_",".",".","_",".",".","_",".",".",".",7,5,"|"],[5,"_",5,5,"_",5,5,"_",5,5,"_",5,5,"_",5,5,"_",5,5,"_",5,".",5,3,"|",0,"_",0,0,"_",0,0,"_",5,"/",7,".",".",0,"_",0,0,"_",0,0,"_",5,"/",7,".",".","|"]],[[".",".","_",".",".","_",".",".","_",".",".","_",".",".","_",".",".","_",".",".","_",".",".","|"],[".",".","_",".",".","_",".",".","_",".",".","_",".",".","_",".",".","_",".",".","_",".",".","|"],[".",".","_",9,9,"_",7,7,"_",6,6,"_",".",".","_",9,9,"_",7,7,"_",6,6,"|"],[7,7,"_",".",".","_",".",".","_",".",".","_",7,7,"_",".",".","_",".",".","_",".",".","|"]],[[".","_",".",".","_",".",".","_",".",".","_",".",".","_",".","_",".",".",".","|",".","_",".",".","_",".",".","_",".",".",".",".",".","|",".","_",".",".","_",".",".","_",".",".",".",".",".","|"],[".","_",".",".","_",".",".","_",".",".","_",".",".","_",".","_",".",".",".","|",".","_",".",".","_",".",".","_",".",".",".",".",".","|",".","_",".",".","_",".",".","_",".",".",".",".",".","|"],[".","_",".",".","_",".",".","_",".",".","_",".",7,"_",5,"_",".",".",".","|",".","_",".",".","_",".",".","_",".",".",".",7,5,"|",".","_",".",".","_",".",".","_",".",".",".",7,5,"|"],[5,"_",5,5,"_",5,5,"_",5,5,"_",5,".","_",".","_",7,5,3,"|",0,"_",0,0,"_",0,0,"_",5,"/",7,".",".","|",0,"_",0,0,"_",0,0,"_",5,"/",7,".",".","|"]],[[".",".","_",".",".","_",".",".","_",".",".","|",".",".","_",".","_",".",".",".","|",".","_",".",".","_",".",".","_",".",".",".",".",".",".","_",".",".","_",".",".","_",".",".",".",".",".","|"],[".",".","_",".",".","_",".",".","_",".",".","|",".",".","_",".","_",".",".",".","|",".","_",".",".","_",".",".","_",".",".",".",".",".",".","_",".",".","_",".",".","_",".",".",".",".",".","|"],[".",".","_",9,9,"_",7,7,"_",6,".","|",9,7,"_",5,"_",".",".",".","|",".","_",".",".","_",".",".","_",".",".",".",7,5,".","_",".",".","_",".",".","_",".",".",".",7,5,"|"],[7,7,"_",".",".","_",".",".","_",".",7,"|",".",".","_",".","_",7,5,3,"|",0,"_",0,0,"_",0,0,"_",5,"/",7,".",".",0,"_",0,0,"_",0,0,"_",5,"/",7,".",".","|"]],[[".","_",".",".",".",".",".",".","_",".",".",".",".",".","_","|",".","_","_","_","_","_","_","_","|"],[".","_",".",".",".",".",".",2,"_",".",".",".",".",".","_","|",".","_","_","_","_","_","_","_","|"],[".","_",".",".",".",2,4,".","_",5,4,2,".",".","_","|",".","_","_","_","_","_","_","_","|"],[0,"_",2,"h",4,".",".",".","_",".",".",".",4,2,"_","|",0,"_","_","_","_","_","_","_","|"]]],"numberofstrings":4,"notes":["G","D","A","E"],"capo":0,"stringnotes":["G2","D2","A1","E1"],"comments":["Intro y base","Estribillo (me gustas mucho)","Segundo estribillo igual al primero pero cierra con Si7","Instrumental La7 Mi7 dos veces","Cierra el intrumental con Si7 Mi7 (y repite todo el instrumental una vez más)","Hace todo el estribillo completo La7 Mi7 Si7 y cierra con este arreglo que es rítmicamente un poco difícil)"],"timing":[["W",null,"W","W",null,"W","W",null,"W","W","W",null,"W",null,"W","W",null,"W","W",null,"W","W","W","W"],["W",null,"W","W",null,"W","W",null,"W","W",null,"W","W",null,"W","W",null,"W","W",null,"W","W","W","W",null,"W",null,"W","W",null,"W","W",null,"W",null,"W","W","W","W","W","W","W","W","W","W","W","W","W","W","W","W"],["W","W","W","W","W","W","W","W","W","W","W",null,"W","W",null,"W","W",null,"W","W",null,"W","W"],["W",null,"W","W",null,"W","W",null,"W","W",null,"W","W",null,"W",null,"W","W","W",null,"W",null,"W","W",null,"W","W",null,"W",null,"W","W","W",null,"W",null,"W","W",null,"W","W",null,"W",null,"W","W","W"],["W","W",null,"W","W",null,"W","W",null,"W","W",null,"W","W",null,"W",null,"W","W","W",null,"W",null,"W","W",null,"W","W",null,"W",null,"W","W","W","W",null,"W","W",null,"W","W",null,"W",null,"W","W","W"],["W",null,"W",null,"W","W","W","W",null,"W","W","W","W","W",null,null,"W"]],"timingvisible":false,"tabcounter":25,"stave":5,"totalstaves":6,"instrument":"4bass","selectedtuning":"4bass","version":"13"}

Member for

2 months 1 week
About Me
Bass Player
Submitted by Leandro Tognetti on Fri, 2020-11-27 17:55