Lamento Boliviano - Enanitos Verdes

01234567891011121314151617181920212223
E
B
G
D
A
E
B
0 1 2 3 4 5 6 7 8 9 10 11 12 13 14 15 16 17 18 19 20 21 22 23
(/) Slide Up  (\) Slide Down  (h) Hammer On  (p) Pull Off  (b) Bend (r) Release (v) Vibrato

Estrofa 1

G|------------------------|--------------------------|----------------------|----------|------------|-
D|------------------------|--------------------------|----------------------|----------|------------|-
A|-7----7--------7----7---|--------9----9--------9---|--------7-----------7-|-7----7-7-|--------6-9-|-
E|--------7----7--------7-|-7----7--------7----7---7-|-5----5------5----5---|----------|-7----7-----|-

Estrofa 2

G|------------------------|--------------------------|--------------------------|----------|----------|-
D|------------------------|--------------------------|----------------------7-5-|----------|----------|-
A|-7------7----7------7-5-|--------9-----------9-7-5-|--------7-----------7-----|-7----7-7-|----------|-
E|------7-----------7-----|-7----7------7----7-------|-5----5------5----5-------|----------|-7----7-7\|-

Puente

G|----------------------|----------------------|----------------------|----------|------------------|-
D|----------------------|----------------------|----------------------|----------|------------------|-
A|-7----7-7----7----7-7-|----------------------|----------------------|-7----7-7-|------------------|-
E|----------------------|-7----7-7----7----7-7-|-5----5-5----5----5-5-|----------|----7-7-7-7-7-7-7-|-

Estribillo

G|-------------------------|--------------------------|--------------------------|----------|------------------|-
D|-------------------------|----------------------9-8-|-7----7---------------7-5-|----------|------------------|-
A|-7----7---5---7----7-7-5-|--------9----9------------|--------7----7------------|-7----7-7-|--------------6-9-|-
E|--------7---7------------|-7----7--------7----7-----|---------------5----5-----|----------|----7-7-7-7-7-----|-

Estribillo (continuación)

G|--------------------------|---------------------------|---------------------------|----------|------------------|-
D|--------------------------|----------7------------7---|----------5------------7-5-|----------|------------------|-
A|-7----7--------7----7-7-5-|--------9---9--------9---9-|--------7---7--------7-----|-7----7-7-|------------------|-
E|--------7----7------------|-7----7-------7----7-------|-5----5-------5----5-------|----------|----7-7-7-7-7-7-7-|-

Solo

G|--------------------------|----------------------|----------------------|---------------|------------|-
D|--------------------------|----------------------|----------------------|---------------|------------|-
A|-7----7--------7------7-5-|--------9-----------9-|--------7-----------7-|-7----7-7-5----|--------6-9-|-
E|--------7----7------7-----|-7----7------7----7---|-5----5------5----5---|---------------|-7----7-----|-

Solo (continuación)

G|------------------------|------------------------|--------------------------|----------|----------
D|------------------------|--------------------9-8-|-7----7---------------7-5-|----------|----------
A|-7----7------7----7-7-5-|--------9---------------|--------7----7------------|-7----7-7-|----------
E|--------7---------------|-7----7------7----7-----|---------------5----5-----|----------|-7----7-7-

Final

G|-------------------------|----------------------|-------5---|-------7---|----------------------
D|-5/7---------------------|-5/7------------------|-----5---7-|-----7---9-|-5/7------------------
A|-----9-7-5-7----7-5------|-----9-7-5-7----7-5---|-5h7-------|-7h9-------|-----9-7-5-7----7-5---
E|--------------------7----|--------------------7-|-----------|-----------|--------------------7-

Estribillos finales

G|-------------------------|--------------------------------|---------------------------|------------|-----------
D|-------------------------|--------9-9-7----------9----7---|--------7-7-5----------7-5-|------------|-----------
A|-7----7---5---7----7-7-5-|--------------9---------------9-|--------------7------------|-7----7-7-5-|-----------
E|--------7---7------------|-7----7---------7----7----------|-5----5---------5----5-----|------------|-7-7-7-7-7-

							http://www.guitartabcreator.com
Chords

Instruments
{"strings":[[[".","_",".",".","_",".",".","_",".",".","|",".","_",".",".","_",".",".","_",".",".",".","|",".","_",".",".","_",".","_",".",".","|",".","_",".",".","|",".","_",".",".",".","|"],[".","_",".",".","_",".",".","_",".",".","|",".","_",".",".","_",".",".","_",".",".",".","|",".","_",".",".","_",".","_",".",".","|",".","_",".",".","|",".","_",".",".",".","|"],[7,"_",7,".","_",".",7,"_",7,".","|",".","_",".",9,"_",9,".","_",".",9,".","|",".","_",".",7,"_",".","_",".",7,"|",7,"_",7,7,"|",".","_",".",6,9,"|"],[".","_",".",7,"_",7,".","_",".",7,"|",7,"_",7,".","_",".",7,"_",7,".",7,"|",5,"_",5,".","_",5,"_",5,".","|",".","_",".",".","|",7,"_",7,".",".","|"]],[[".","_",".",".","_",".","_",".",".",".","|",".","_",".",".","_",".","_",".",".",".",".","|",".","_",".",".","_",".","_",".",".",".",".","|",".","_",".",".","|",".","_",".",".",".","|"],[".","_",".",".","_",".","_",".",".",".","|",".","_",".",".","_",".","_",".",".",".",".","|",".","_",".",".","_",".","_",".",".",7,5,"|",".","_",".",".","|",".","_",".",".",".","|"],[7,"_",".",7,"_",7,"_",".",7,5,"|",".","_",".",9,"_",".","_",".",9,7,5,"|",".","_",".",7,"_",".","_",".",7,".",".","|",7,"_",7,7,"|",".","_",".",".",".","|"],[".","_",7,".","_",".","_",7,".",".","|",7,"_",7,".","_",7,"_",7,".",".",".","|",5,"_",5,".","_",5,"_",5,".",".",".","|",".","_",".",".","|",7,"_",7,7,"\\","|"]],[[".","_",".",".","_",".","_",".",".","|",".","_",".",".","_",".","_",".",".","|",".","_",".",".","_",".","_",".",".","|",".","_",".",".","|","_",".",".",".",".",".",".",".","|"],[".","_",".",".","_",".","_",".",".","|",".","_",".",".","_",".","_",".",".","|",".","_",".",".","_",".","_",".",".","|",".","_",".",".","|","_",".",".",".",".",".",".",".","|"],[7,"_",7,7,"_",7,"_",7,7,"|",".","_",".",".","_",".","_",".",".","|",".","_",".",".","_",".","_",".",".","|",7,"_",7,7,"|","_",".",".",".",".",".",".",".","|"],[".","_",".",".","_",".","_",".",".","|",7,"_",7,7,"_",7,"_",7,7,"|",5,"_",5,5,"_",5,"_",5,5,"|",".","_",".",".","|","_",7,7,7,7,7,7,7,"|"]],[[".","_",".",".",".",".",".","_",".",".",".","|",".","_",".",".","_",".",".","_",".",".",".","|",".","_",".",".","_",".",".","_",".",".",".","|",".","_",".",".","|","_",".",".",".",".",".",".",".","|"],[".","_",".",".",".",".",".","_",".",".",".","|",".","_",".",".","_",".",".","_",".",9,8,"|",7,"_",7,".","_",".",".","_",".",7,5,"|",".","_",".",".","|","_",".",".",".",".",".",".",".","|"],[7,"_",7,".",5,".",7,"_",7,7,5,"|",".","_",".",9,"_",9,".","_",".",".",".","|",".","_",".",7,"_",7,".","_",".",".",".","|",7,"_",7,7,"|","_",".",".",".",".",".",6,9,"|"],[".","_",".",7,".",7,".","_",".",".",".","|",7,"_",7,".","_",".",7,"_",7,".",".","|",".","_",".",".","_",".",5,"_",5,".",".","|",".","_",".",".","|","_",7,7,7,7,7,".",".","|"]],[[".","_",".",".","_",".",".","_",".",".",".","|",".","_",".",".",".",".",".","_",".",".",".",".","|",".","_",".",".",".",".",".","_",".",".",".",".","|",".","_",".",".","|","_",".",".",".",".",".",".",".","|"],[".","_",".",".","_",".",".","_",".",".",".","|",".","_",".",".",7,".",".","_",".",".",7,".","|",".","_",".",".",5,".",".","_",".",".",7,5,"|",".","_",".",".","|","_",".",".",".",".",".",".",".","|"],[7,"_",7,".","_",".",7,"_",7,7,5,"|",".","_",".",9,".",9,".","_",".",9,".",9,"|",".","_",".",7,".",7,".","_",".",7,".",".","|",7,"_",7,7,"|","_",".",".",".",".",".",".",".","|"],[".","_",".",7,"_",7,".","_",".",".",".","|",7,"_",7,".",".",".",7,"_",7,".",".",".","|",5,"_",5,".",".",".",5,"_",5,".",".",".","|",".","_",".",".","|","_",7,7,7,7,7,7,7,"|"]],[[".","_",".",".","_",".",".","_",".",".",".","|",".","_",".",".","_",".","_",".",".","|",".","_",".",".","_",".","_",".",".","|",".","_",".",".",".","_","|",".","_",".",".",".","|"],[".","_",".",".","_",".",".","_",".",".",".","|",".","_",".",".","_",".","_",".",".","|",".","_",".",".","_",".","_",".",".","|",".","_",".",".",".","_","|",".","_",".",".",".","|"],[7,"_",7,".","_",".",7,"_",".",7,5,"|",".","_",".",9,"_",".","_",".",9,"|",".","_",".",7,"_",".","_",".",7,"|",7,"_",7,7,5,"_","|",".","_",".",6,9,"|"],[".","_",".",7,"_",7,".","_",7,".",".","|",7,"_",7,".","_",7,"_",7,".","|",5,"_",5,".","_",5,"_",5,".","|",".","_",".",".",".","_","|",7,"_",7,".",".","|"]],[[".","_",".",".","_",".","_",".",".",".","|",".","_",".",".","_",".","_",".",".",".","|",".","_",".",".","_",".",".","_",".",".",".","|",".","_",".",".","|",".","_",".","."],[".","_",".",".","_",".","_",".",".",".","|",".","_",".",".","_",".","_",".",9,8,"|",7,"_",7,".","_",".",".","_",".",7,5,"|",".","_",".",".","|",".","_",".","."],[7,"_",7,".","_",7,"_",7,7,5,"|",".","_",".",9,"_",".","_",".",".",".","|",".","_",".",7,"_",7,".","_",".",".",".","|",7,"_",7,7,"|",".","_",".","."],[".","_",".",7,"_",".","_",".",".",".","|",7,"_",7,".","_",7,"_",7,".",".","|",".","_",".",".","_",".",5,"_",5,".",".","|",".","_",".",".","|",7,"_",7,7]],[[".",".",".",".",".",".",".","_",".",".",".","_","|",".",".",".",".",".",".",".","_",".",".",".","|",".",".",".",".",5,".","|",".",".",".",".",7,".","|",".",".",".",".",".",".",".","_",".",".","."],[5,"/",7,".",".",".",".","_",".",".",".","_","|",5,"/",7,".",".",".",".","_",".",".",".","|",".",".",".",5,".",7,"|",".",".",".",7,".",9,"|",5,"/",7,".",".",".",".","_",".",".","."],[".",".",".",9,7,5,7,"_",7,5,".","_","|",".",".",".",9,7,5,7,"_",7,5,".","|",5,"h",7,".",".",".","|",7,"h",9,".",".",".","|",".",".",".",9,7,5,7,"_",7,5,"."],[".",".",".",".",".",".",".","_",".",".",7,"_","|",".",".",".",".",".",".",".","_",".",".",7,"|",".",".",".",".",".",".","|",".",".",".",".",".",".","|",".",".",".",".",".",".",".","_",".",".",7]],[[".","_",".",".",".",".",".","_",".",".",".","|",".","_",".",".",".",".",".",".","_",".",".","_",".",".","|",".","_",".",".",".",".",".",".","_",".",".",".","|",".","_",".",".",".","|",".",".",".",".","."],[".","_",".",".",".",".",".","_",".",".",".","|",".","_",".",9,9,7,".",".","_",".",9,"_",7,".","|",".","_",".",7,7,5,".",".","_",".",7,5,"|",".","_",".",".",".","|",".",".",".",".","."],[7,"_",7,".",5,".",7,"_",7,7,5,"|",".","_",".",".",".",".",9,".","_",".",".","_",".",9,"|",".","_",".",".",".",".",7,".","_",".",".",".","|",7,"_",7,7,5,"|",".",".",".",".","."],[".","_",".",7,".",7,".","_",".",".",".","|",7,"_",7,".",".",".",".",7,"_",7,".","_",".",".","|",5,"_",5,".",".",".",".",5,"_",5,".",".","|",".","_",".",".",".","|",7,7,7,7,7]]],"numberofstrings":4,"notes":["G","D","A","E"],"capo":0,"stringnotes":["G2","D2","A1","E1"],"comments":["Estrofa 1","Estrofa 2","Puente","Estribillo","Estribillo (continuación)","Solo","Solo (continuación)","Final","Estribillos finales"],"timing":[["W",null,"W","W",null,"W","W",null,"W","W",null,"W",null,"W","W",null,"W","W",null,"W","W","W",null,"W",null,"W","W",null,"W",null,"W","W",null,"W",null,"W","W",null,"W",null,"W","W","W"],["W",null,"W","W",null,"W",null,"W","W","W",null,"W",null,"W","W",null,"W",null,"W","W","W","W",null,"W",null,"W","W",null,"W",null,"W","W","W","W",null,"W",null,"W","W",null,"W",null,"W","W"],["W",null,"W","W","W","W",null,"W","W",null,"W",null,"W","W",null,"W",null,"W","W",null,"W",null,"W","W",null,"W",null,"W","W",null,"W",null,"W","W",null,null,"W","W","W","W","W","W","W"],["W",null,"W","W","W","W","W",null,"W","W","W",null,"W",null,"W","W",null,"W","W",null,"W","W","W",null,"W",null,"W","W",null,"W","W",null,"W","W","W",null,"W",null,"W","W",null,null,"W","W","W","W","W","W","W"],["W",null,"W","W",null,"W","W",null,"W","W","W",null,"W",null,"W","W","W","W","W",null,"W","W","W","W",null,"W",null,"W","W","W","W","W",null,"W","W","W","W",null,"W",null,"W","W",null,"W","W","W","W","W","W","W","W"],["W",null,"W","W",null,"W","W",null,"W","W","W",null,"W",null,"W","W",null,"W",null,"W","W",null,"W",null,"W","W",null,"W",null,"W","W",null,"W",null,"W","W","W",null,"W","W",null,"W","W","W"],["W",null,"W","W",null,"W",null,"W","W","W",null,"W",null,"W","W",null,"W",null,"W","W","W",null,"W",null,"W","W",null,"W","W",null,"W","W","W",null,"W",null,"W","W",null,"W",null,"W","W"],["W",null,"W","W","W","W","W",null,"W","W","W",null,null,"W",null,"W","W","W","W","W",null,"W","W","W",null,"W",null,"W","W","W","W",null,"W",null,"W","W","W","W",null,"W",null,"W","W","W","W","W",null,"W","W","W"],["W",null,"W","W","W","W","W",null,"W","W","W",null,"W",null,"W","W","W","W","W","W",null,"W","W",null,"W","W",null,"W",null,"W","W","W","W","W","W",null,"W","W","W",null,"W",null,"W","W","W",null,"W","W","W","W","W"]],"timingvisible":false,"tabcounter":51,"stave":8,"totalstaves":9,"instrument":"4bass","selectedtuning":"4bass","version":"13"}

Member for

2 months 1 week
About Me
Bass Player
Submitted by Leandro Tognetti on Thu, 2020-11-26 20:31