Escala de G

01234567891011121314151617181920212223
E
B
G
D
A
E
B
0 1 2 3 4 5 6 7 8 9 10 11 12 13 14 15 16 17 18 19 20 21 22 23
(/) Slide Up  (\) Slide Down  (h) Hammer On  (p) Pull Off  (b) Bend (r) Release (v) Vibrato

Posición 1

E|-----------------------------0-2-3-2-0---------------------------------------|-
B|-----------------------0-1-3-----------3-1-0---------------------------------|-
G|-------------------0-2-----------------------2-0-----------------------------|-
D|-------------0-2-4-------------------------------4-2-0-----------------------|-
A|-------0-2-3-------------------------------------------3-2-0-------5-3-2-0---|-
E|-0-2-3-------------------------------------------------------3-2-0---------3-|-

Posición 2

E|---------------------------2-3-5-3-2---------------------------|-
B|-----------------------3-5-----------5-3-----------------------|-
G|-----------------2-4-5-------------------5-4-2-----------------|-
D|-----------2-4-5-------------------------------5-4-2-----------|-
A|-----2-3-5-------------------------------------------5-3-2-----|-
E|-3-5-------------------------------------------------------5-3-|-

							http://www.guitartabcreator.com
Chords

Instruments
{"strings":[[[".",".",".",".",".",".",".",".",".",".",".",".",".",".",0,2,3,2,0,".",".",".",".",".",".",".",".",".",".",".",".",".",".",".",".",".",".",".","|"],[".",".",".",".",".",".",".",".",".",".",".",0,1,3,".",".",".",".",".",3,1,0,".",".",".",".",".",".",".",".",".",".",".",".",".",".",".",".","|"],[".",".",".",".",".",".",".",".",".",0,2,".",".",".",".",".",".",".",".",".",".",".",2,0,".",".",".",".",".",".",".",".",".",".",".",".",".",".","|"],[".",".",".",".",".",".",0,2,4,".",".",".",".",".",".",".",".",".",".",".",".",".",".",".",4,2,0,".",".",".",".",".",".",".",".",".",".",".","|"],[".",".",".",0,2,3,".",".",".",".",".",".",".",".",".",".",".",".",".",".",".",".",".",".",".",".",".",3,2,0,".",".",".",5,3,2,0,".","|"],[0,2,3,".",".",".",".",".",".",".",".",".",".",".",".",".",".",".",".",".",".",".",".",".",".",".",".",".",".",".",3,2,0,".",".",".",".",3,"|"]],[[".",".",".",".",".",".",".",".",".",".",".",".",".",2,3,5,3,2,".",".",".",".",".",".",".",".",".",".",".",".",".","|"],[".",".",".",".",".",".",".",".",".",".",".",3,5,".",".",".",".",".",5,3,".",".",".",".",".",".",".",".",".",".",".","|"],[".",".",".",".",".",".",".",".",2,4,5,".",".",".",".",".",".",".",".",".",5,4,2,".",".",".",".",".",".",".",".","|"],[".",".",".",".",".",2,4,5,".",".",".",".",".",".",".",".",".",".",".",".",".",".",".",5,4,2,".",".",".",".",".","|"],[".",".",2,3,5,".",".",".",".",".",".",".",".",".",".",".",".",".",".",".",".",".",".",".",".",".",5,3,2,".",".","|"],[3,5,".",".",".",".",".",".",".",".",".",".",".",".",".",".",".",".",".",".",".",".",".",".",".",".",".",".",".",5,3,"|"]]],"numberofstrings":6,"notes":["E","B","G","D","A","E","B"],"capo":0,"stringnotes":["E4","B3","G3","D3","A2","E2"],"comments":["Posición 1","Posición 2"],"timing":[["W","W","W","W","W","W","W","W","W","W","W","W","W","W","W","W","W","W","W","W","W","W","W","W","W","W","W","W","W","W","W","W","W","W","W","W","W","W"],["W","W","W","W","W","W","W","W","W","W","W","W","W","W","W","W","W","W","W","W","W","W","W","W","W","W","W","W","W","W","W"]],"timingvisible":false,"tabcounter":32,"stave":1,"totalstaves":2,"instrument":"6guitar","selectedtuning":"6_standard","version":"13"}

Member for

2 months 1 week
About Me
Bass Player
Submitted by Leandro Tognetti on Fri, 2020-12-04 15:02