Escala de Do

Chords

01234567891011121314151617181920212223
E
B
G
D
A
E
B
0 1 2 3 4 5 6 7 8 9 10 11 12 13 14 15 16 17 18 19 20 21 22 23
(/) Slide Up  (\) Slide Down  (h) Hammer On  (p) Pull Off  (b) Bend (r) Release (v) Vibrato

Escala do pos 1

E|-----------------------------0-1-3-1-0---------------------------------|-
B|-----------------------0-1-3-----------3-1-0---------------------------|-
G|-------------------0-2-----------------------2-0-----------------------|-
D|-------------0-2-3-------------------------------3-2-0-----------------|-
A|-------0-2-3-------------------------------------------3-2-0-------5-3-|-
E|-0-1-3-------------------------------------------------------3-1-0-----|-

Escala do pos 2

E|-----------------------------5-7-8-7-5---------------------------------------|-
B|-----------------------5-6-8-----------8-6-5---------------------------------|-
G|-----------------4-5-7-----------------------7-5-4---------------------------|-
D|-------------5-7-----------------------------------7-5-----------------------|-
A|-------5-7-8-------------------------------------------8-7-5-------------5-3-|-
E|-5-7-8-------------------------------------------------------8-7-5-3-1-0-----|-

Escala do pos 3

E|--------------------------------7-8-10-8-7--------------------------------|-
B|---------------------------8-10------------10-8---------------------------|-
G|--------------------7-9-10----------------------10-9-7--------------------|-
D|-------------7-9-10------------------------------------10-9-7-------------|-
A|------7-8-10--------------------------------------------------10-8-7------|-
E|-8-10----------------------------------------------------------------10-8-|-

							http://www.guitartabcreator.com
Instruments
{"strings":[[[".",".",".",".",".",".",".",".",".",".",".",".",".",".",0,1,3,1,0,".",".",".",".",".",".",".",".",".",".",".",".",".",".",".",".","|"],[".",".",".",".",".",".",".",".",".",".",".",0,1,3,".",".",".",".",".",3,1,0,".",".",".",".",".",".",".",".",".",".",".",".",".","|"],[".",".",".",".",".",".",".",".",".",0,2,".",".",".",".",".",".",".",".",".",".",".",2,0,".",".",".",".",".",".",".",".",".",".",".","|"],[".",".",".",".",".",".",0,2,3,".",".",".",".",".",".",".",".",".",".",".",".",".",".",".",3,2,0,".",".",".",".",".",".",".",".","|"],[".",".",".",0,2,3,".",".",".",".",".",".",".",".",".",".",".",".",".",".",".",".",".",".",".",".",".",3,2,0,".",".",".",5,3,"|"],[0,1,3,".",".",".",".",".",".",".",".",".",".",".",".",".",".",".",".",".",".",".",".",".",".",".",".",".",".",".",3,1,0,".",".","|"]],[[".",".",".",".",".",".",".",".",".",".",".",".",".",".",5,7,8,7,5,".",".",".",".",".",".",".",".",".",".",".",".",".",".",".",".",".",".",".","|"],[".",".",".",".",".",".",".",".",".",".",".",5,6,8,".",".",".",".",".",8,6,5,".",".",".",".",".",".",".",".",".",".",".",".",".",".",".",".","|"],[".",".",".",".",".",".",".",".",4,5,7,".",".",".",".",".",".",".",".",".",".",".",7,5,4,".",".",".",".",".",".",".",".",".",".",".",".",".","|"],[".",".",".",".",".",".",5,7,".",".",".",".",".",".",".",".",".",".",".",".",".",".",".",".",".",7,5,".",".",".",".",".",".",".",".",".",".",".","|"],[".",".",".",5,7,8,".",".",".",".",".",".",".",".",".",".",".",".",".",".",".",".",".",".",".",".",".",8,7,5,".",".",".",".",".",".",5,3,"|"],[5,7,8,".",".",".",".",".",".",".",".",".",".",".",".",".",".",".",".",".",".",".",".",".",".",".",".",".",".",".",8,7,5,3,1,0,".",".","|"]],[[".",".",".",".",".",".",".",".",".",".",".",".",".",7,8,10,8,7,".",".",".",".",".",".",".",".",".",".",".",".",".","|"],[".",".",".",".",".",".",".",".",".",".",".",8,10,".",".",".",".",".",10,8,".",".",".",".",".",".",".",".",".",".",".","|"],[".",".",".",".",".",".",".",".",7,9,10,".",".",".",".",".",".",".",".",".",10,9,7,".",".",".",".",".",".",".",".","|"],[".",".",".",".",".",7,9,10,".",".",".",".",".",".",".",".",".",".",".",".",".",".",".",10,9,7,".",".",".",".",".","|"],[".",".",7,8,10,".",".",".",".",".",".",".",".",".",".",".",".",".",".",".",".",".",".",".",".",".",10,8,7,".",".","|"],[8,10,".",".",".",".",".",".",".",".",".",".",".",".",".",".",".",".",".",".",".",".",".",".",".",".",".",".",".",10,8,"|"]]],"numberofstrings":6,"notes":["E","B","G","D","A","E","B"],"capo":0,"stringnotes":["E4","B3","G3","D3","A2","E2"],"comments":["Escala do pos 1","Escala do pos 2","Escala do pos 3"],"timing":[["W","W","W","W","W","W","W","W","W","W","W","W","W","W","W","W","W","W","W","W","W","W","W","W","W","W","W","W","W","W","W","W","W","W","W"],["W","W","W","W","W","W","W","W","W","W","W","W","W","W","W","W","W","W","W","W","W","W","W","W","W","W","W","W","W","W","W","W","W","W","W","W","W","W"],["W","W","W","W","W","W","W","W","W","W","W","W","W","W","W","W","W","W","W","W","W","W","W","W","W","W","W","W","W","W","W"]],"timingvisible":false,"tabcounter":32,"stave":2,"totalstaves":3,"instrument":"6guitar","selectedtuning":"6_standard","version":"13"}

Member for

2 months
About Me
Bass Player
Submitted by Leandro Tognetti on Wed, 2020-12-02 21:08