Chalaman - Abuelos de la nada bass tab

01234567891011121314151617181920212223
E
B
G
D
A
E
B
0 1 2 3 4 5 6 7 8 9 10 11 12 13 14 15 16 17 18 19 20 21 22 23
(/) Slide Up  (\) Slide Down  (h) Hammer On  (p) Pull Off  (b) Bend (r) Release (v) Vibrato

Stave 1:

G|---------|-
D|---------|-
A|-----5---|-
E|-5-7---7-|-

Stave 2:

G|---------------|-
D|---------------|-
A|-0-0-------5---|-
E|-------5-7---7-|-

Stave 3:

G|-----------|-------------|-------------|-------------|-
D|-----------|-------------|-------------|-------------|-
A|-5---5-5-5-|---------7-7-|---------9---|---------5---|-
E|-----------|-5-5---5-----|-7-7---7---2-|-3-3---3---3-|-

Stave 4:

G|-----------|-----------------|-----------|-----------------|-----------|-
D|-----------|-----------------|-----------|-----------------|-----------|-
A|-2-2-2---2-|-3-3---2-3-2---0-|-2-2-2---2-|-3-3---2-3-2---0-|-2-2-2---2-|-
E|-----------|-------------3---|-----------|-------------3---|-----------|-

Stave 5:

G|-----------|-------------|-------------|-------------|-
D|-----------|-------------|-------------|-------------|-
A|-5---5-5-5-|---------7---|---------9---|---------5---|-
E|-----------|-5-5---5---5-|-7-7---7---2-|-3-3---3---3-|-

Stave 6:

G|---------|-------------|-------|---------------|-
D|---------|-------7-7---|-------|---------------|-
A|-5-------|-----7-----7-|-------|---------5-5---|-
E|---7-5-2-|-5-----------|-7-----|-3-3---3-----3-|-

Stave 7:

G|-----------|-------------|-------------|-----------------|-
D|-----------|-------------|-----------9-|---------5-5-----|-
A|-5---5-5-5-|-------------|---------9---|-------------5---|-
E|-----------|-5-5---5-5-5-|-7-7---7-----|-3-3---3-------3-|-

Stave 8:

G|-----------|-----------------|-------------|---------------|-
D|-----------|-------------7---|-----------9-|---------------|-
A|-5---5-5-5-|-----------7---7-|---------9---|---------5-5---|-
E|-----------|-5-5---5-5-------|-7-7---7-----|-3-3---3-----3-|-

Stave 9:

G|-----------|-----------|-----------|-----------|-
D|-----------|-----------|-----------|-----------|-
A|-5---5-5-5-|-------7---|-----5-----|-------7---|-
E|-----------|-5---5---5-|-3-3-----3-|-5-5-5---5-|-

							http://www.guitartabcreator.com
Chords

Instruments
{"strings":[[[".",".",".",".",null,null,null,"|"],[".",".",".",".",null,null,"|"],[".",".",5,".",null,"|"],[5,7,".",7,"|"]],[[".",".","_",".",".",".",".",null,null,null,"|"],[".",".","_",".",".",".",".",null,null,"|"],[0,0,"_",".",".",5,".",null,"|"],[".",".","_",5,7,".",7,"|"]],[[".","_",".",".",".",null,null,null,"|",".",".","_",".",".",".",null,null,null,"|",".",".","_",".",".",".",null,null,null,"|",".",".","_",".",".",".",null,null,null,"|"],[".","_",".",".",".",null,null,"|",null,".",".","_",".",".",".",null,null,"|",null,".",".","_",".",".",".",null,null,"|",null,".",".","_",".",".",".",null,null,"|"],[5,"_",5,5,5,null,"|",null,null,".",".","_",".",7,7,null,"|",null,null,".",".","_",".",9,".",null,"|",null,null,".",".","_",".",5,".",null,"|"],[".","_",".",".",".","|",null,null,null,5,5,"_",5,".",".","|",null,null,null,7,7,"_",7,".",2,"|",null,null,null,3,3,"_",3,".",3,"|"]],[[".",".",".","_",".",null,null,null,"|",".",".","_",".",".",".",".",".",null,null,null,"|",".",".",".","_",".",null,null,null,"|",".",".","_",".",".",".",".",".",null,null,null,"|",".",".",".","_",".",null,null,null,"|"],[".",".",".","_",".",null,null,"|",null,".",".","_",".",".",".",".",".",null,null,"|",null,".",".",".","_",".",null,null,"|",null,".",".","_",".",".",".",".",".",null,null,"|",null,".",".",".","_",".",null,null,"|"],[2,2,2,"_",2,null,"|",null,null,3,3,"_",2,3,2,".",0,null,"|",null,null,2,2,2,"_",2,null,"|",null,null,3,3,"_",2,3,2,".",0,null,"|",null,null,2,2,2,"_",2,null,"|"],[".",".",".","_",".","|",null,null,null,".",".","_",".",".",".",3,".","|",null,null,null,".",".",".","_",".","|",null,null,null,".",".","_",".",".",".",3,".","|",null,null,null,".",".",".","_",".","|"]],[[".","_",".",".",".",null,null,null,"|",".",".","_",".",".",".",null,null,null,"|",".",".","_",".",".",".",null,null,null,"|",".",".","_",".",".",".",null,null,null,"|"],[".","_",".",".",".",null,null,"|",null,".",".","_",".",".",".",null,null,"|",null,".",".","_",".",".",".",null,null,"|",null,".",".","_",".",".",".",null,null,"|"],[5,"_",5,5,5,null,"|",null,null,".",".","_",".",7,".",null,"|",null,null,".",".","_",".",9,".",null,"|",null,null,".",".","_",".",5,".",null,"|"],[".","_",".",".",".","|",null,null,null,5,5,"_",5,".",5,"|",null,null,null,7,7,"_",7,".",2,"|",null,null,null,3,3,"_",3,".",3,"|"]],[[".",".",".",".",null,null,null,"|",".","_",".",".",".",".",null,null,null,"|",".","_","_",null,null,null,"|",".",".","_",".",".",".",".",null,null,null,"|"],[".",".",".",".",null,null,"|",null,".","_",".",7,7,".",null,null,"|",null,".","_","_",null,null,"|",null,".",".","_",".",".",".",".",null,null,"|"],[5,".",".",".",null,"|",null,null,".","_",7,".",".",7,null,"|",null,null,".","_","_",null,"|",null,null,".",".","_",".",5,5,".",null,"|"],[".",7,5,2,"|",null,null,null,5,"_",".",".",".",".","|",null,null,null,7,"_","_","|",null,null,null,3,3,"_",3,".",".",3,"|"]],[[".","_",".",".",".",null,null,null,"|",".",".","_",".",".",".",null,null,null,"|",".",".","_",".",".",".",null,null,null,"|",".",".","_",".",".",".",".",".",null,null,null,"|"],[".","_",".",".",".",null,null,"|",null,".",".","_",".",".",".",null,null,"|",null,".",".","_",".",".",9,null,null,"|",null,".",".","_",".",5,5,".",".",null,null,"|"],[5,"_",5,5,5,null,"|",null,null,".",".","_",".",".",".",null,"|",null,null,".",".","_",".",9,".",null,"|",null,null,".",".","_",".",".",".",5,".",null,"|"],[".","_",".",".",".","|",null,null,null,5,5,"_",5,5,5,"|",null,null,null,7,7,"_",7,".",".","|",null,null,null,3,3,"_",3,".",".",".",3,"|"]],[[".","_",".",".",".",null,null,null,"|",".",".","_",".",".",".",".",".",null,null,null,"|",".",".","_",".",".",".",null,null,null,"|",".",".","_",".",".",".",".",null,null,null,"|"],[".","_",".",".",".",null,null,"|",null,".",".","_",".",".",".",7,".",null,null,"|",null,".",".","_",".",".",9,null,null,"|",null,".",".","_",".",".",".",".",null,null,"|"],[5,"_",5,5,5,null,"|",null,null,".",".","_",".",".",7,".",7,null,"|",null,null,".",".","_",".",9,".",null,"|",null,null,".",".","_",".",5,5,".",null,"|"],[".","_",".",".",".","|",null,null,null,5,5,"_",5,5,".",".",".","|",null,null,null,7,7,"_",7,".",".","|",null,null,null,3,3,"_",3,".",".",3,"|"]],[[".","_",".",".",".",null,null,null,"|",".","_",".",".",".",null,null,null,"|",".",".",".","_",".",null,null,null,"|",".",".",".",".",".",null,null,null,"|"],[".","_",".",".",".",null,null,"|",null,".","_",".",".",".",null,null,"|",null,".",".",".","_",".",null,null,"|",null,".",".",".",".",".",null,null,"|"],[5,"_",5,5,5,null,"|",null,null,".","_",".",7,".",null,"|",null,null,".",".",5,"_",".",null,"|",null,null,".",".",".",7,".",null,"|"],[".","_",".",".",".","|",null,null,null,5,"_",5,".",5,"|",null,null,null,3,3,".","_",3,"|",null,null,null,5,5,5,".",5,"|"]]],"numberofstrings":4,"notes":["G","D","A","E"],"capo":0,"stringnotes":["G2","D2","A1","E1"],"comments":["Stave 1:","Stave 2:","Stave 3:","Stave 4:","Stave 5:","Stave 6:","Stave 7:","Stave 8:","Stave 9:"],"timing":[["W","W","W","W"],["W","W","W","W","W","W","W"],["W","W","W","W","W","W",null,null,null,"W","W","W","W","W","W",null,null,null,null,"W","W","W","W","W","W",null,null,null,null,"W","W","W","W","W","W"],["W","W","W","W","W",null,null,null,null,"W","W","W","W","W","W","W","W",null,null,null,null,"W","W","W","W","W",null,null,null,null,"W","W","W","W","W","W","W","W",null,null,null,null,"W","W","W","W","W"],["W","W","W","W","W",null,null,null,null,"W","W","W","W","W","W",null,null,null,null,"W","W","W","W","W","W",null,null,null,null,"W","W","W","W","W","W"],["W","W","W","W",null,null,null,null,"W","W","W","W","W","W",null,null,null,null,"W","W","W",null,null,null,null,"W","W","W","W","W","W","W"],["W","W","W","W","W",null,null,null,null,"W","W","W","W","W","W",null,null,null,null,"W","W","W","W","W","W",null,null,null,null,"W","W","W","W","W","W","W","W"],["W","W","W","W","W",null,null,null,null,"W","W","W","W","W","W","W","W",null,null,null,null,"W","W","W","W","W","W",null,null,null,null,"W","W","W","W","W","W","W"],["W","W","W","W","W",null,null,null,null,"W","W","W","W","W",null,null,null,null,"W","W","W","W","W",null,null,null,null,"W","W","W","W","W"]],"timingvisible":false,"tabcounter":36,"stave":8,"totalstaves":9,"instrument":"4bass","selectedtuning":"4bass","version":"13"}

Member for

1 year
About Me
Bass Player
Submitted by Leandro Tognetti on Thu, 2021-10-14 18:29