Acordes de la tonalidad de Do

Chords

01234567891011121314151617181920212223
E
B
G
D
A
E
B
0 1 2 3 4 5 6 7 8 9 10 11 12 13 14 15 16 17 18 19 20 21 22 23
(/) Slide Up  (\) Slide Down  (h) Hammer On  (p) Pull Off  (b) Bend (r) Release (v) Vibrato

Acordes de 7ma tonalidad Do mayor  Cmaj7 Dm7 Em7 Fmaj7 G7 Am7 Bm7b5 C

E|--0--|--1--|--0--|--0--|--1--|--0--|--x--|--0--|--
B|--0--|--1--|--3--|--1--|--0--|--1--|--3--|--1--|--
G|--0--|--2--|--0--|--2--|--0--|--0--|--2--|--0--|--
D|--2--|--0--|--2--|--3--|--0--|--2--|--3--|--2--|--
A|--3--|-----|--2--|--3--|--2--|--0--|--2--|--3--|--
E|--x--|--x--|--0--|-----|--3--|-----|--x--|-----|--

Acordes en otra posición Cmaj7 Dm7 Em7 Fmaj7 G7 Am7 Bm7b5 C

E|--3--|--5--|--7--|-----|--3--|--5--|--x--|--8---|--
B|--5--|--6--|--8--|--1--|--3--|--5--|--6--|--8---|--
G|--4--|--5--|--7--|--2--|--4--|--5--|--7--|--9---|--
D|--5--|--7--|--9--|--2--|--3--|--5--|--7--|--10--|--
A|--3--|--5--|--7--|-----|--5--|--7--|--x--|--10--|--
E|--x--|--x--|--x--|--1--|--3--|--5--|--7--|--8---|--

							http://www.guitartabcreator.com
Instruments
{"strings":[[[0,"|",1,"|",0,"|",0,"|",1,"|",0,"|","x0","|",0,"|"],[0,"|",1,"|",3,"|",1,"|",0,"|",1,"|",3,"|",1,"|"],[0,"|",2,"|",0,"|",2,"|",0,"|",0,"|",2,"|",0,"|"],[2,"|",0,"|",2,"|",3,"|",0,"|",2,"|",3,"|",2,"|"],[3,"|",".","|",2,"|",3,"|",2,"|",0,"|",2,"|",3,"|"],["x0","|","x0","|",0,"|",".","|",3,"|",".","|","x0","|",".","|"]],[[3,"|",5,"|",7,"|",".","|",3,"|",5,"|","x7","|",8,"|"],[5,"|",6,"|",8,"|",1,"|",3,"|",5,"|",6,"|",8,"|"],[4,"|",5,"|",7,"|",2,"|",4,"|",5,"|",7,"|",9,"|"],[5,"|",7,"|",9,"|",2,"|",3,"|",5,"|",7,"|",10,"|"],[3,"|",5,"|",7,"|",".","|",5,"|",7,"|","x7","|",10,"|"],["x3","|","x5","|","x7","|",1,"|",3,"|",5,"|",7,"|",8,"|"]]],"numberofstrings":6,"notes":["E","B","G","D","A","E","B"],"capo":0,"stringnotes":["E4","B3","G3","D3","A2","E2"],"comments":["Acordes de 7ma tonalidad Do mayor Cmaj7 Dm7 Em7 Fmaj7 G7 Am7 Bm7b5 C","Acordes en otra posición Cmaj7 Dm7 Em7 Fmaj7 G7 Am7 Bm7b5 C"],"timing":[[null,null,null,null,null,null,null,null,null,null,null,null,null,null,null],[null,null,null,null,null,null,null,null,null,null,null,null,null,null,null]],"timingvisible":false,"tabcounter":16,"stave":1,"totalstaves":2,"instrument":"6guitar","selectedtuning":"6_standard","version":"13"}

Member for

2 months
About Me
Bass Player
Submitted by Leandro Tognetti on Wed, 2020-12-02 21:35