The Avatar's Love

01234567891011121314151617181920212223
E
B
G
D
A
E
B
0 1 2 3 4 5 6 7 8 9 10 11 12 13 14 15 16 17 18 19 20 21 22 23
(/) Slide Up  (\) Slide Down  (h) Hammer On  (p) Pull Off  (b) Bend (r) Release (v) Vibrato

Stave 1:

E|------------------------------------------------
B|--------------------------------7------------8--
G|--------6-----------7-----------7------------7--
D|-----4-----------5-----------7------------9-----
A|--5-----------7-----------9-----------10--------
E|------------------------------------------------

Stave 2:

E|-----------------------------------------------------------
B|--3--2-----------3--2-----------3--2-----------3--2--------
G|--------2-----------------------------2--------------2-----
D|-----------4-----------2--4--------------4--------------4--
A|-----------------------------------------------------------
E|-----------------------------------------------------------

Stave 3:

E|--------------------------------------------------------------------
B|--------------------------------------------------------------------
G|--0-----0--------0-----0-----------0-----0--------0-----0-----------
D|-----4-----0--------4-----4-----------4-----0--------4-----4--0-----
A|-----------------------------2-----------------------------------2--
E|--------------------------------------------------------------------

Stave 4:

E|-----------------------------------------------------------
B|--3--2-----------3--2-----------3--2-----------3--2--------
G|--------2--------------2--------------2--------------2-----
D|-----------4--------------4--------------4--------------4--
A|-----------------------------------------------------------
E|-----------------------------------------------------------

Stave 5:

E|-----------------------------------0--2--0--2--5--5--5--0--2-----
B|-----------------------2--3--2--3-----------------------------2--
G|-----------2--4--2--4--------------------------------------------
D|--5--4--5--------------------------------------------------------
A|-----------------------------------------------------------------
E|-----------------------------------------------------------------

							http://www.guitartabcreator.com
Chords

Instruments
{"strings":[[[".",".",".","_",".",".",".","_",".",".",".","_",".",".","."],[".",".",".","_",".",".",".","_",".",".",7,"_",".",".",8],[".",".",6,"_",".",".",7,"_",".",".",7,"_",".",".",7],[".",4,".","_",".",5,".","_",".",7,".","_",".",9,"."],[5,".",".","_",7,".",".","_",9,".",".","_",10,".","."],[".",".",".","_",".",".",".","_",".",".",".","_",".",".","."]],[[".",".",".",".","_",".",".",".",".","_",".",".",".",".","_",".",".",".","."],[3,2,".",".","_",3,2,".",".","_",3,2,".",".","_",3,2,".","."],[".",".",2,".","_",".",".",".",".","_",".",".",2,".","_",".",".",2,"."],[".",".",".",4,"_",".",".",2,4,"_",".",".",".",4,"_",".",".",".",4],[".",".",".",".","_",".",".",".",".","_",".",".",".",".","_",".",".",".","."],[".",".",".",".","_",".",".",".",".","_",".",".",".",".","_",".",".",".","."]],[[".",".",".",".","_",".",".",".",".",".","_",".",".",".",".","_",".",".",".",".",".","."],[".",".",".",".","_",".",".",".",".",".","_",".",".",".",".","_",".",".",".",".",".","."],[0,".",0,".","_",0,".",0,".",".","_",0,".",0,".","_",0,".",0,".",".","."],[".",4,".",0,"_",".",4,".",4,".","_",".",4,".",0,"_",".",4,".",4,0,"."],[".",".",".",".","_",".",".",".",".",2,"_",".",".",".",".","_",".",".",".",".",".",2],[".",".",".",".","_",".",".",".",".",".","_",".",".",".",".","_",".",".",".",".",".","."]],[[".",".",".",".","_",".",".",".",".","_",".",".",".",".","_",".",".",".","."],[3,2,".",".","_",3,2,".",".","_",3,2,".",".","_",3,2,".","."],[".",".",2,".","_",".",".",2,".","_",".",".",2,".","_",".",".",2,"."],[".",".",".",4,"_",".",".",".",4,"_",".",".",".",4,"_",".",".",".",4],[".",".",".",".","_",".",".",".",".","_",".",".",".",".","_",".",".",".","."],[".",".",".",".","_",".",".",".",".","_",".",".",".",".","_",".",".",".","."]],[[".",".",".",".",".",".",".",".",".",".",".",0,2,0,2,5,5,5,0,2,"."],[".",".",".",".",".",".",".",2,3,2,3,".",".",".",".",".",".",".",".",".",2],[".",".",".",2,4,2,4,".",".",".",".",".",".",".",".",".",".",".",".",".","."],[5,4,5,".",".",".",".",".",".",".",".",".",".",".",".",".",".",".",".",".","."],[".",".",".",".",".",".",".",".",".",".",".",".",".",".",".",".",".",".",".",".","."],[".",".",".",".",".",".",".",".",".",".",".",".",".",".",".",".",".",".",".",".","."]]],"numberofstrings":6,"notes":["E","B","G","D","A","E","B"],"capo":0,"stringnotes":["E4","B3","G3","D3","A2","E2"],"comments":["Stave 1:","Stave 2:","Stave 3:","Stave 4:","Stave 5:","Stave 6:"],"timing":[["W","W","W",null,"W","W","W",null,"W","W","W","W","W","W","W"],["W","W","W","W",null,"W","W","W","W",null,"W","W","W","W",null,"W","W","W","W"],["W","W","W","W",null,"W","W","W","W","W",null,"W","W","W","W",null,"W","W","W","W","W","W"],["W","W","W","W",null,"W","W","W","W",null,"W","W","W","W",null,"W","W","W","W"],["W","W","W","W","W","W","W","W","W","W","W","W","W","W","W","W","W","W","W","W","W"],[]],"timingvisible":false,"tabcounter":22,"stave":2,"totalstaves":5,"instrument":"6guitar","selectedtuning":"6_standard","version":"13"}

Member for

1 month 2 weeks
Submitted by lbessell on Sun, 2021-03-07 11:18