Sound will begin in 5 seconds

Banshee

01234567891011121314151617181920212223
E
B
G
D
A
E
B
0 1 2 3 4 5 6 7 8 9 10 11 12 13 14 15 16 17 18 19 20 21 22 23
Song Science #1: How Pros Use 6 Chords to Write Hit Songs
(/) Slide Up  (\) Slide Down  (h) Hammer On  (p) Pull Off  (b) Bend (r) Release (v) Vibrato

Stave 1:

D|-----------------------------------------------------
A|-----------------------------------------------------
F|-----------------------------------------------------
C|-----------------------------------------------------
G|--2--2--3--3--3--------------2--2--3--3--5--5--4--4--
C|-----------------3--3--2--2--------------------------

Stave 2:

D|-----------------------------------------------------------
A|-----------------------------------------------------------
F|-----------------------------------------------------------
C|-----------------------------------------------------------
G|-----------------------------------------------------------
C|--5--5-----2-----5--5-----2-----5--5-----2-----5--5-----2--

Stave 3:

D|-----------------------------------------------------------------
A|-----------------------------------------------------------------
F|-----------------------------------------------3--3--3--2--------
C|-----------------2--2--2--4-----5--5--5--2-----------------------
G|--5--5--5--2-----------------------------------------------------
C|--------------------------------------------------------------2--

Stave 4:

D|-----------------------------------------------
A|-----------------------------------------------
F|-----------------------------------------------
C|-----------------------------------------------
G|-----------------------------------------------
C|--2-----2-----2-----2-----2-----2-----2-----2--

Stave 5:

D|--------------------------------------------------------------
A|--------------------------------------------------------------
F|--------------------------------------------------------------
C|--------------------------------------------------------------
G|-----------------------------------------3-----2-----1-----2--
C|--2--2--2--3--2--2--2--3--2--2--2--2--2-----------------------

Stave 6:

D|--------------------------------------------------------------------------------------
A|--------------------------------------------------------------------------------------
F|--------------------------------------------------------------------------------------
C|--------------------------------------------------------------------------------------
G|--5--5--5--5--5--5--5--5--------------------6--6--6--6--6--6--6--6--------------------
C|--------------------------5--5--5--6--6--6--------------------------6--6--6--7--7--7--

Stave 7:

D|-----------------------------------------------
A|-----------------------------------------------
F|-----------------------------------------------
C|-----------------------------------------------
G|-----------------------------------------------
C|--2--3--3--3--2--2--2--2--2--5--5--5--7--7--7--

Stave 8:

D|-----------------------------------------------------------------------------
A|-----------------------------------------------------------------------------
F|-----------------------------------------------------------------------------
C|-----------------------------------------------------------------------------
G|-----------------------------------------------------------------------------
C|--2--3--3--3--3--3--3--2--2--2--2--2--2--5--5--5--5--5--5--7--7--7--7--7--7--

http://www.guitartabcreator.com
Guitar Tab Creator is intended to store guitar tab created through the tool. It currently does not support in-line text editing. Any text you place in here will be lost. If you need to comment on your tab, please use the "Tab Notes" section located below.