Sound will begin in 5 seconds

Love Yourself - Justin Bieber

Chords
01234567891011121314151617181920212223
E
B
G
D
A
E
B
0 1 2 3 4 5 6 7 8 9 10 11 12 13 14 15 16 17 18 19 20 21 22 23
Song Science #1: How Pros Use 6 Chords to Write Hit Songs
(/) Slide Up  (\) Slide Down  (h) Hammer On  (p) Pull Off  (b) Bend (r) Release (v) Vibrato

Stave 1:

E|-------------------------------------------------------------------------------------
B|--9--9-----------7--7-----------5--5-----------10--10-----------9--9-----------7--7--
G|-----------x--------------x--------------x----------------x--------------x-----------
D|-----------x--------------x--------------x----------------x--------------x-----------
A|--7--7-----------6--6-----------4--4-----------9---9------------7--7-----------6--6--
E|-------------------------------------------------------------------------------------

Stave 2:

E|--------------------------------------------------------------------------------------------------------
B|--------------------------------------------------------------------------------------------------------
G|--6--6--x--2--x--1--1--x--1--x--6--6--x--2--x--1--1--x--1--x--6--6--x--2--x--1--1--x--4--x--6--6--x--2--
D|--6--6--x--2--x--2--2--x--2--x--6--6--x--2--x--2--2--x--2--x--6--6--x--2--x--2--2--x--4--x--6--6--x--2--
A|--4--4--x--0--x--2--2--x--2--x--4--4--x--0--x--2--2--x--2--x--4--4--x--0--x--2--2--x--2--x--4--4--x--0--
E|-----------------0--0-----0--------------------0--0-----0--------------------0--0-----------------------

Stave 3:

E|-----------------------
B|-----------------------
G|--x--4--4--4--4--4--x--
D|--x--4--4--4--4--4--x--
A|--x--2--2--2--2--2--x--
E|-----------------------

Stave 4:

E|---------------------------------------------
B|---------------------------------------------
G|---x--4--x--6--x--2--x-----1--x--2--x--1--x--
D|---x--4--x--6--x--2--x-----2--x--2--x--2--x--
A|---x--2--x--4--x--0--x-----2--x--0--x--2--x--
E|--h------------------------0-----------0-----

http://www.guitartabcreator.com
Guitar Tab Creator is intended to store guitar tab created through the tool. It currently does not support in-line text editing. Any text you place in here will be lost. If you need to comment on your tab, please use the "Tab Notes" section located below.