Sound will begin in 5 seconds

Spirited Away - One Summer's Day

01234567891011121314151617181920212223
E
B
G
D
A
E
B
0 1 2 3 4 5 6 7 8 9 10 11 12 13 14 15 16 17 18 19 20 21 22 23
Song Science #1: How Pros Use 6 Chords to Write Hit Songs
(/) Slide Up  (\) Slide Down  (h) Hammer On  (p) Pull Off  (b) Bend (r) Release (v) Vibrato

Stave 1:

G|-----------------------------------|-----------------------------------
D|--------------------7--------------|--------------------5--------------
A|--7--7--7--7--5--7-----7--5--5--5--|--5--5--5--5--3--5-----5--3--2--3--
E|-----------------------------------|-----------------------------------

Stave 2:

G|--------------------------|--------------------------|--------------------------|--------
D|--------------------------|--------------------------|-----------------------5--|--------
A|--0--2--3--3--3--3--3--3--|--0--2--3--3--3--3--2--3--|--0--2--3--3--3--3--3-----|--3--5--
E|--------------------------|--------------------------|--------------------------|--------

Stave 3:

G|---------------------------------------------|-------------------------------------------
D|---------------------------------------------|-------------------------------------------
A|--7--8--10--10-----10--10--8--7--5--5--7-----|--7--8--10--10--10--10--10--8--7--5--5--7--
E|------------------------------------------8--|-------------------------------------------

Stave 4:

G|--------------------
D|--------------------
A|-----5--7-----------
E|--8-----------5--8--

Stave 5:

G|----------------7---------|-----------------------|-----------------------|--------------------
D|--7--9--10--10-----10--9--|-----5--7--7--5-----5--|--5--5--5--------------|-----3--5-----7--5--
A|--------------------------|--7--------------8-----|-----------8--7--5--7--|--3-----------------
E|--------------------------|-----------------------|-----------------------|--------------------

Stave 6:

G|----------------7---------|-----------------------|-----------------------|-----------------------
D|--8--9--10--10-----10--9--|-----5--7--7--5-----5--|--5--5--5--------------|--5--6--8--6--6--5--6--
A|--------------------------|--7--------------8-----|-----------8--7--5--7--|-----------------------
E|--------------------------|-----------------------|-----------------------|-----------------------

Stave 7:

G|-----------5--|--------5--|--5--4--5--7--|-----5--4--5--
D|--5--6--8-----|--6--8-----|--------------|--5-----------
A|--------------|-----------|--------------|--------------
E|--------------|-----------|--------------|--------------

Stave 8:

G|------|-----------------|------------------|--------------|-----------------
D|--10--|-----------------|------------------|--------------|--------5--------
A|------|--8--7--6--7-----|------------------|-----3--5--3--|--5--------7--3--
E|------|--------------8--|--7-----8--10--8--|--3-----------|-----------------

Stave 9:

G|------------------|-----|------|-------------
D|--------7--9--10--|--9--|--12--|--10--9--10--
A|--5---------------|-----|------|-------------
E|------------------|-----|------|-------------

http://www.guitartabcreator.com
Guitar Tab Creator is intended to store guitar tab created through the tool. It currently does not support in-line text editing. Any text you place in here will be lost. If you need to comment on your tab, please use the "Tab Notes" section located below.