Sound will begin in 5 seconds

The Game Is On - Sherlock OST

01234567891011121314151617181920212223
E
B
G
D
A
E
B
0 1 2 3 4 5 6 7 8 9 10 11 12 13 14 15 16 17 18 19 20 21 22 23
Song Science #1: How Pros Use 6 Chords to Write Hit Songs
(/) Slide Up  (\) Slide Down  (h) Hammer On  (p) Pull Off  (b) Bend (r) Release (v) Vibrato

Stave 1:

G|----------------------------|---------------------0-
D|-----------------------2----|---2----2-0-2-3----2---
A|---2----2-1-2-3----2-0------|-----------------------
E|-0--------------------------|-0---------------------

Stave 2:

G|-4-4-4-4----4-4-4-4----4-4-4-4----4-4-4-4-|-5-5-5-5----5-5-5-5----5-5-5-5----5-5-5-5-
D|------------------------------------------|------------------------------------------
A|------------------------------------------|------------------------------------------
E|------------------------------------------|------------------------------------------

Stave 3:

G|----------------------------------|----------------------------------
D|----------------------------------|----------------------------------
A|-----3-----------------3----------|-----3-----------------3----------
E|-3-3------5-5-3----3-3------5-5-3-|-3-3------5-5-3----3-3------5-5-3-

Stave 4:

G|----------------------------|---------------------0-
D|---------------------0-2----|---2----2-0-2-3----2---
A|---2----2-1-2-3----2--------|-----------------------
E|-0--------------------------|-0---------------------

Stave 5:

G|----------------------------------|----------------------------------------------
D|-8----------------------------8---|--------5-5-7----3-3-5----2-2-3-------------2-
A|---7----7-8-10----8-10-8-7------7-|-7-8-------------------------------5-3-2------
E|----------------------------------|----------------------------------------------

Stave 6:

G|-15----------------------------------14----|----------12-12-14----10-10-12----9-9-10---------------9-
D|----14----14-15-17----15-17-15-14-------14-|-14-15--------------------------------------12-10-9------
A|-------------------------------------------|---------------------------------------------------------
E|-------------------------------------------|---------------------------------------------------------

http://www.guitartabcreator.com
Guitar Tab Creator is intended to store guitar tab created through the tool. It currently does not support in-line text editing. Any text you place in here will be lost. If you need to comment on your tab, please use the "Tab Notes" section located below.