Sound will begin in 5 seconds

breathe

Chords
01234567891011121314151617181920212223
E
B
G
D
A
E
B
0 1 2 3 4 5 6 7 8 9 10 11 12 13 14 15 16 17 18 19 20 21 22 23
Song Science #1: How Pros Use 6 Chords to Write Hit Songs
(/) Slide Up  (\) Slide Down  (h) Hammer On  (p) Pull Off  (b) Bend (r) Release (v) Vibrato

Stave 1:

E|--------------
B|--0--0-----0--
G|--2--0--5--0--
D|--0--0--0--0--
A|--2--2--3--2--
E|--3--3--5--3--

Stave 2:

E|--------------------
B|-------------10-----
G|--7------11--11--7--
D|--9--9---12--12--9--
A|-----10-------------
E|--------------------

Stave 3:

E|--------------------------
B|--3--5--0--0-----3--5--0--
G|--5--7--3--0-----5--7--7--
D|--5--5--0--0-----5--5--0--
A|--3--7--2--2-----3--7--5--
E|--3--5--3--3-----3--5--7--

http://www.guitartabcreator.com
Guitar Tab Creator is intended to store guitar tab created through the tool. It currently does not support in-line text editing. Any text you place in here will be lost. If you need to comment on your tab, please use the "Tab Notes" section located below.