Sound will begin in 5 seconds

Cavatina

01234567891011121314151617181920212223
E
B
G
D
A
E
B
0 1 2 3 4 5 6 7 8 9 10 11 12 13 14 15 16 17 18 19 20 21 22 23
Song Science #1: How Pros Use 6 Chords to Write Hit Songs
(/) Slide Up  (\) Slide Down  (h) Hammer On  (p) Pull Off  (b) Bend (r) Release (v) Vibrato

Stave 1:

E|-----------------------------------------------------------------------------------|--
B|----------------2----------2-------------------------------------------------------|--
G|--4----4--2--4-------2--4-------4--2----4----2\1--1--------------------------------|--
D|-----------------------------------------------------4--4--2--4--2--2--2--4--1--2--|--
A|-----------------------------------------------------------------------------------|--
E|-----------------------------------------------------------------------------------|--

Stave 2:

E|----------7--12--12--11--9--9--11/12\11--9--7--5----7--2--4--------------------------
B|----5--9-----------------------------------------------------5--7--9--9--7--5--7--7--
G|-------------------------------------------------------------------------------------
D|-------------------------------------------------------------------------------------
A|-------------------------------------------------------------------------------------
E|-------------------------------------------------------------------------------------

Stave 3:

E|-------------------|---------------------------------------------------------------------
B|----5--5--7--4--5--|--12--12--10--12--14--10--12--14--12--10--12-------------------------
G|-------------------|----------------------------------------------13--13--13--11--11--9--
D|-------------------|---------------------------------------------------------------------
A|-------------------|---------------------------------------------------------------------
E|-------------------|---------------------------------------------------------------------

Stave 4:

E|-----------------------------|--------------12--12--11--9--9--9--11/12\11--------------
B|-----------------------------|----------12---------------------------------14--12--10--
G|----11--9--9----9--11--8--9--|------13-------------------------------------------------
D|-----------------------------|--14-----------------------------------------------------
A|-----------------------------|---------------------------------------------------------
E|-----------------------------|---------------------------------------------------------

Stave 5:

E|-----------------------------------------------------12--11--12--14--14--19--
B|----12---------------------10--11----11--12--11--12--------------------------
G|--------11--13--9--11--13----------------------------------------------------
D|-----------------------------------------------------------------------------
A|-----------------------------------------------------------------------------
E|-----------------------------------------------------------------------------

Stave 6:

E|----19--19--17--19--21--17--19--21--19--17--19--17--16----16--14--14--12--14--14--12--
B|--------------------------------------------------------------------------------------
G|--------------------------------------------------------------------------------------
D|--------------------------------------------------------------------------------------
A|--------------------------------------------------------------------------------------
E|--------------------------------------------------------------------------------------

Stave 7:

E|----12--14--11--12--|--------------11/12--------------------------------------------12--
B|--------------------|----------12-----------------------------------------------12------
G|--------------------|------13------------------------11/13--11--------------13----------
D|--------------------|--14-------------------13/14---------------14--14--14--------------
A|--------------------|-------------------------------------------------------------------
E|--------------------|-------------------------------------------------------------------

http://www.guitartabcreator.com
Guitar Tab Creator is intended to store guitar tab created through the tool. It currently does not support in-line text editing. Any text you place in here will be lost. If you need to comment on your tab, please use the "Tab Notes" section located below.