Sound will begin in 5 seconds

Chinese vaginese

01234567891011121314151617181920212223
E
B
G
D
A
E
B
0 1 2 3 4 5 6 7 8 9 10 11 12 13 14 15 16 17 18 19 20 21 22 23
Song Science #1: How Pros Use 6 Chords to Write Hit Songs
(/) Slide Up  (\) Slide Down  (h) Hammer On  (p) Pull Off  (b) Bend (r) Release (v) Vibrato

Stave 1:

E|----------12--17-----15--14--14b14----------|--
B|------15----------------------------15------|--
G|--14------------------------------------16--|--
D|--------------------------------------------|--
A|--------------------------------------------|--
E|--------------------------------------------|--

Stave 2:

E|--------------12--------------14--|------------7-------------9--|--
B|------13--15----------15--17------|-----8--10--------10--12-----|--
G|--12--------------14--------------|--7------------9-------------|--
D|----------------------------------|-----------------------------|--
A|----------------------------------|-----------------------------|--
E|----------------------------------|-----------------------------|--

Stave 3:

E|------------7--------------------9----------------------12----------|--
B|-----8--10-----8---------10--12-----10----------13--15------13------|--
G|--7---------------10--9-----------------11--12------------------15--|--
D|--------------------------------------------------------------------|--
A|--------------------------------------------------------------------|--
E|--------------------------------------------------------------------|--

Stave 4:

E|--------------14----------------------15----------------------17--18--20v--|--
B|------15--17------15----------16--18------16----------18--20---------------|--
G|--14------------------16--15------------------17--17-----------------------|--
D|---------------------------------------------------------------------------|--
A|---------------------------------------------------------------------------|--
E|---------------------------------------------------------------------------|--

http://www.guitartabcreator.com
Guitar Tab Creator is intended to store guitar tab created through the tool. It currently does not support in-line text editing. Any text you place in here will be lost. If you need to comment on your tab, please use the "Tab Notes" section located below.