Sound will begin in 5 seconds

Seth

Chords
01234567891011121314151617181920212223
E
B
G
D
A
E
B
0 1 2 3 4 5 6 7 8 9 10 11 12 13 14 15 16 17 18 19 20 21 22 23
Song Science #1: How Pros Use 6 Chords to Write Hit Songs
(/) Slide Up  (\) Slide Down  (h) Hammer On  (p) Pull Off  (b) Bend (r) Release (v) Vibrato

(W|WW) Whole (H|HH) Half (Q|QQ) Quarter (E|EE) 8th (S|SS) 16th (T|TT) 32nd (X|XX) 64th

Stave 1:
t: E E E E E E E E E E E E E E E E E E E E E E E E E E E E E E E
E|-----|--------------------------------------------------|--------------------------------------------------
B|-----|--------------------------------------------------|--------------------------------------------------
G|-----|--------------------------------------------------|--------------------------------------------------
D|--2--|--------------------------8--7--5-----7--5-----2--|-----------------------------------------------2--
A|--2--|--------7--5--8--7-----------------8--------8--2--|--------7--5--8--7-----------------------------2--
E|--0--|-----0--------------0--0-----------------------0--|-----0--------------0--0--0--0--0--0--0--0--0--0--

Stave 2:
t: E E E E E E E E E E E E E E E E E E E E E E E E E E E E E
E|--------------------------------------------------|-------------------------------------------------|--
B|--------------------------------------------------|-------------------------------------------------|--
G|--------------------------------------------------|-------------------------------------------------|--
D|--------------------------8--7--5-----7--5-----2--|----------------------------------------------2--|--
A|--------7--5--8--7-----------------8--------8--2--|--------7--5--8--7----------------------------2--|--
E|-----0--------------0--0-----------------------0--|-----0--------------0--0--0--0--0--0--3b5-----0--|--

Stave 3:
t: E E E E E E E E E E E E E E E E E E E E E E E E E E E E E E
E|--------------------------------------------------|--------------------------------------------------|--
B|--------------------------------------------------|--------------------------------------------------|--
G|--------------------------------------------------|--------------------------------------------------|--
D|--------------------------8--7--5-----7--5-----2--|--------------------------------------2--3--2--2--|--
A|--------7--5--8--7-----------------8--------7--2--|--------7--5--8--7-----------------------------2--|--
E|-----0--------------0--0-----------------------0--|-----0--------------0--0--0--1--3--5-----------0--|--

Stave 4:
t: E E E E E E E E E E E Q E E E E E E E E E E E E E E E E E
E|-----------------------------------------------|--------------------------------------------------
B|-----------------------------------------------|--------------------------------------------------
G|-----------------------------------------------|--------------------------------------------------
D|-----2-----------------------------3--------2--|-----2--------------------------------2--3--2--2--
A|-----2-----------------------------3--------2--|-----2-----------------------------------------2--
E|-----0--0--0--0--0--0--0--0--0--0--1--1--1--0--|-----0--0--0--0--0--0--0--0--1--3--5-----------0--

Stave 5:
t: E E E E E E E E E E E Q E E E E E E E E E E E E E E E E E
E|-----------------------------------------------|--------------------------------------------------
B|-----------------------------------------------|--------------------------------------------------
G|-----------------------------------------------|--------------------------------------------------
D|-----2-----------------------------3--------2--|-----2-----------------------------------------2--
A|-----2-----------------------------3--------2--|-----2-----------------------------------------2--
E|-----0--0--0--0--0--0--0--0--0--0--1--1--1--0--|-----0--0--0--0--0--0--0--0--0--0--0--0--0--0--0--

Stave 6:
t: E E E E E E E E E E E E E E E E E E E E E E E E E E E E
E|--------------------------|--------------------------|--------------------------|--------------------------
B|--------------------------|--------------------------|--------------------------|--------------------------
G|--------------------------|--------------------------|--------------------------|--------------------------
D|-----------------------2--|-----------------------2--|-----------------------2--|--------------------------
A|-----------------------2--|-----------------------2--|-----------------------2--|--------------------------
E|-----0--2--1--3--0--0--0--|-----0--2--1--3--0--0--0--|-----0--2--1--3--0--0--0--|-----0--2--1--3--0--0--0--

Stave 7:
t: E S E S E S E S S S S S S S S S S S S S S S S S S S S S
E|--------------------------------------|--------------------------------------------------
B|--------------------------------------|--------------------------------------------------
G|--------------3-----------------------|--------------------------------------------------
D|--2-----5-----3-----3-----3-----5-----|--------------------------------------------------
A|--2-----5-----1-----3-----3-----5-----|--2--------1--------------2--------1--------------
E|--0--0--3--0-----0--1--0--1--0--3--0--|-----0--0-----0--0--0--0-----0--0-----0--0--0--0--

Stave 8:
t: E S E S E S E S Q S S S S S S S S S S S S S S S S
E|-----------------------------|--------------------------------------------------
B|-----------------------------|--------------------------------------------------
G|--------------5-----3-----3--|--------------------------------------------------
D|--2-----3-----5-----3-----3--|--------------------------------------------------
A|--2-----3-----3-----1-----1--|--2--------1--------------2--------1--------------
E|--0--0--1--0-----0-----0-----|-----0--0-----0--0--0--0-----0--0-----0--0--0--0--

Stave 9:
t: S S S S S S S S S S S S S S S S
E|--------------------------------------------------|--
B|--------------------------------------------------|--
G|--------------------------------------------------|--
D|-----------------------------------------------2--|--
A|--2--------1--------------3--2--4--3--5--4--6--2--|--
E|-----0--0-----0--0--0--0-----------------------0--|--

Stave 10:
t: W W W W W W W W W W W W W W W W
E|--------------------------------------------------|--
B|--------------------------------------------------|--
G|--------------------------------------------------|--
D|--------------------------------------------------|--
A|--2--------1--------------3--2--4--3--5--4--6--5--|--
E|-----0--0-----0--0--0--0--------------------------|--

Stave 11:
t: Q H
E|-----------|--
B|-----------|--
G|-----9-----|--
D|--2--9-----|--
A|--2--7-----|--
E|--0--------|--

Stave 12:
t: E S S S S S S S S S S E S S E S S S S S S S S S S S S S S S
E|-----|-----------------------------------------------|--------------------------------------------------
B|-----|-----------------------------------------------|--------------------------------------------------
G|-----|-----------------------------------------------|--------------------------------------------------
D|--2--|-----2-----------------------------3--------2--|-----2--------------------------------------------
A|--2--|-----2-----------------------------3--------2--|-----2-----------------------------------------2--
E|--0--|-----0--0--0--0--0--0--0--0--0--0--1--1--1--0--|-----0--0--0--0--0--0--0--0--0--0--0--0--0--0--0--

Stave 13:
t: E S S S S S S S S S S E S S E S S S S S S S S S S S S S S S
E|-----|-----------------------------------------------|--------------------------------------------------
B|-----|-----------------------------------------------|--------------------------------------------------
G|-----|-----------------------------------------------|--------------------------------------------------
D|--6--|-----6-----------------------------7--------6--|-----6-----------------------------------------6--
A|--6--|-----6-----------------------------7--------6--|-----6-----------------------------------------6--
E|--4--|-----4--4--4--4--4--4--4--4--4--4--5--5--5--4--|-----4--4--4--4--4--4--4--4--4--4--4--4--4--4--4--

Stave 14:
t: E S S S S S S S S S S E S S E S S S S S S S S S S S S S S S
E|-----|-----------------------------------------------|--------------------------------------------------
B|-----|-----------------------------------------------|--------------------------------------------------
G|--5--|-----5-----------------------------6--------5--|-----5-----------------------------------------5--
D|--5--|-----5-----------------------------6--------5--|-----5-----------------------------------------5--
A|--3--|-----3--3--3--3--3--3--3--3--3--3--4--4--4--3--|-----3--3--3--3--3--3--3--3--3--3--3--3--3--3--3--
E|-----|-----------------------------------------------|--------------------------------------------------

Stave 15:
t: W W W E E E E E E E E
E|-----------------------------------
B|-----------------------------------
G|--9--9--9--------------------------
D|--9--9--9--------------2--3--2--2--
A|--7--7--7-----------------------2--
E|-----------0--1--3--5-----------0--

http://www.guitartabcreator.com
Guitar Tab Creator is intended to store guitar tab created through the tool. It currently does not support in-line text editing. Any text you place in here will be lost. If you need to comment on your tab, please use the "Tab Notes" section located below.