Sound will begin in 5 seconds

Twisted

01234567891011121314151617181920212223
E
B
G
D
A
E
B
0 1 2 3 4 5 6 7 8 9 10 11 12 13 14 15 16 17 18 19 20 21 22 23
(/) Slide Up  (\) Slide Down  (h) Hammer On  (p) Pull Off  (b) Bend (r) Release (v) Vibrato

Stave 1:

E|--------------------------------------------------------------------------------------------------
B|--------------------------------------------------------------------------------------------------
G|--------------------------------------------------------------------------------------------------
D|--------------2--2--------------------2--2--------------------3--3--------------------3--3--------
A|--0--0--3--3--------3--3--0--0--3--3--------3--3--0--0--5--5--------5--5--0--0--5--5--------5--5--
D|--------------------------------------------------------------------------------------------------

Stave 2:

E|--------------------------------------------------------------------------------------------------
B|--------------------------------------------------------------------------------------------------
G|--------------------------------------------------------------------------------------------------
D|--------------0--0--------------------0--0--------------------1--1--------------------1--1--------
A|--0--0--2--2--------2--2--0--0--2--2--------2--2--0--0--3--3--------3--3--0--0--3--3--------3--3--
D|--------------------------------------------------------------------------------------------------

Stave 3:

E|--------------------------------------------------------------------------------------------------
B|--------------------------------------------------------------------------------------------------
G|--------------------------------------------------------------------------------------------------
D|--------2--3--2-----------------2--3--2-----------------3--5--3-----------------3--5--3-----------
A|--0--3-----------3--0--3--0--3-----------3--0--3--0--5-----------5--0--5--0--5-----------5--0--5--
D|--------------------------------------------------------------------------------------------------

Stave 4:

E|--------------------------------------------------------------------------------------------------
B|--------------------------------------------------------------------------------------------------
G|--------------------------------------------------------------------------------------------------
D|--------0--2--0-----------------0--2--0-----------------1--2--1-----------------1--2--1-----------
A|--0--2-----------2--0--2--0--2-----------2--0--2--0--3-----------3--0--3--0--3-----------3--0--3--
D|--------------------------------------------------------------------------------------------------

Stave 5:

E|--------------------------------------------------------------------------------------------------
B|--------------------------------------------------------------------------------------------------
G|--------2-----------2-----------2-----------2-----------4-----------4-----------4-----------4-----
D|-----2-----2-----2-----2-----2-----2-----2-----2-----3-----3-----3-----3-----3-----3-----3-----3--
A|--3-----------3-----------3-----------3-----------5-----------5-----------5-----------5-----------
D|--------------------------------------------------------------------------------------------------

Stave 6:

E|--------------------------------------------------------------------------------------------------
B|--------------------------------------------------------------------------------------------------
G|--------1-----------1-----------2-----------1-----------1-----------1-----------1-----------1-----
D|-----0-----0-----0-----0-----0-----0-----0-----0-----2-----2-----2-----2-----1-----1-----1-----1--
A|--2-----------2-----------2-----------2-----------3-----------3-----------3-----------3-----------
D|--------------------------------------------------------------------------------------------------

http://www.guitartabcreator.com
Guitar Tab Creator is intended to store guitar tab created through the tool. It currently does not support in-line text editing. Any text you place in here will be lost. If you need to comment on your tab, please use the "Tab Notes" section located below.