Sound will begin in 5 seconds

Telepathic Thought Process Bass Tab

01234567891011121314151617181920212223
E
B
G
D
A
E
B
0 1 2 3 4 5 6 7 8 9 10 11 12 13 14 15 16 17 18 19 20 21 22 23
Song Science #1: How Pros Use 6 Chords to Write Hit Songs
(/) Slide Up  (\) Slide Down  (h) Hammer On  (p) Pull Off  (b) Bend (r) Release (v) Vibrato

Stave 1:

G|-----------------------------------------------------------------|--
D|-----------------------------------------------------------------|--
A|-----------------------------------------------------------------|--
E|--2--2--2--2--2--2--2--2--2--2--2--2--2--2--2--2--2--2--2--2--2--|--

Stave 2:

G|--------------------------------------------------
D|--------------------------------3-----------------
A|--------4-----------------5--5-----5--5--4--3--0--
E|--2--2-----2--7--5--4--3--------------------------

Stave 3:

G|--------------------------------------------------
D|-----------------3--3-----------------------------
A|-------0h4--0h5----------------0h4--0h5-----------
E|--0h2---------------------0h2------------1--1-----

Stave 4:

G|--------------------------------------------------
D|--------------------------------------------------
A|--------------------------------------------------
E|--1--1--1--1--1--1--1--1--3--3--3--3--3--3--3--3--

Stave 5:

G|-------------------------------------------------------------------------------------------
D|-------------------------------------------------------------------------------------------
A|-------------------------------------------------------------------------------------------
E|--7--7--7--7--7--7--7--7--7--7--7--7--7--7--7--7--6--6--6--6--6--6--6--6--6--6--6--6--6\0--

Stave 6:

G|--------------------
D|--------9-----------
A|-----------9--------
E|--7-----------7--6--

Stave 7:

G|--------------------------------------------------|-----6-----6-----------------6-----6--------------
D|-----4-----4-----------------4-----4--------------|--------------------------------------------------
A|--------------------------------------------------|--4-----4--------4--4--4--4-----4--------4--4--4--
E|--2-----2--------2--2--2--2-----2--------2--2--2--|--------------------------------------------------

Stave 8:

G|-----7-----7-----------------7-----7--------------|--------------------------------------------------
D|--------------------------------------------------|-----3-----3-----------------9-----7-----6-----5--
A|--5-----5--------5--5--5--5-----5--------5--5--5--|--------------------------------------------------
E|--------------------------------------------------|--1-----1--------1--1--1--7-----5-----4-----3-----

Stave 9:

G|-----------------------------
D|-----------------------------
A|-----------4--0--------------
E|--2--2--2--------7--5--4--3--

Stave 10:

G|--------------------------------------------0--
D|-----------------------------------------------
A|-----------------------------------------------
E|--2--2-----2--2-----2--2-----2--2-----14\2-----

Stave 11:

G|--------2--4--------2--4--------2--4--------2--4--|--------2--4--------2--4--------2--4--------2--4--
D|-----4-----------4-----------4-----------4--------|-----3-----------3-----------3-----------3--------
A|--------------------------------------------------|--4-----------4-----------4-----------4-----------
E|--2-----------2-----------2-----------2-----------|--------------------------------------------------

Stave 12:

G|-----2--5--7-----2--5--7-----2--5--7-----2--5--7--|-----
D|--0-----------0-----------0-----------0-----------|--3--
A|--------------------------------------------------|-----
E|--------------------------------------------------|-----

http://www.guitartabcreator.com
Guitar Tab Creator is intended to store guitar tab created through the tool. It currently does not support in-line text editing. Any text you place in here will be lost. If you need to comment on your tab, please use the "Tab Notes" section located below.