Sound will begin in 5 seconds

Telepathic Thought Process

Chords
01234567891011121314151617181920212223
E
B
G
D
A
E
B
0 1 2 3 4 5 6 7 8 9 10 11 12 13 14 15 16 17 18 19 20 21 22 23
Song Science #1: How Pros Use 6 Chords to Write Hit Songs
(/) Slide Up  (\) Slide Down  (h) Hammer On  (p) Pull Off  (b) Bend (r) Release (v) Vibrato

Stave 1:

E|--------------|--|------------------
B|-----5--7--9--|--|--10--11--15--15--
G|--2--6--7--9--|--|--10--12--16--15--
D|--4-----------|--|------------------
A|-----4--5--7--|--|--8---10--14--13--
E|--2-----------|--|------------------

Stave 2:

E|---------------------------------
B|--10--11--15-----15----------15--
G|--10--12--16---------16------15--
D|-------------------------16------
A|--8---10--14-----------------13--
E|---------------------------------

Stave 3:

E|--------------------------------------------------
B|--------------5-----5-----7-----7-----9-----9-----
G|--2-----2--------6-----6-----7-----7-----9-----9--
D|-----4-----4--------------------------------------
A|--------------------------------------------------
E|--------------------------------------------------

Stave 4:

E|--------------------------------------------------------------------------------------------------
B|--10--------------11--------------15--------------15--------------15--------------15--------------
G|------10------10------12------12------16------16------16------16------15------15------15------15--
D|----------12--------------12--------------16--------------16--------------15--------------15------
A|--------------------------------------------------------------------------------------------------
E|--------------------------------------------------------------------------------------------------

Stave 5:

E|--------------|--|---------------------------------------------------------
B|-----5--7--9--|--|--10--------------11--------------15-----15----------15--
G|--2--6--7--9--|--|------10------10------12------12-------------16------15--
D|--4-----------|--|----------12--------------12---------------------16--15--
A|--------------|--|---------------------------------------------------------
E|--------------|--|---------------------------------------------------------

http://www.guitartabcreator.com
Guitar Tab Creator is intended to store guitar tab created through the tool. It currently does not support in-line text editing. Any text you place in here will be lost. If you need to comment on your tab, please use the "Tab Notes" section located below.