Sound will begin in 5 seconds

Telepathic Thought Process

Chords
01234567891011121314151617181920212223
E
B
G
D
A
E
B
0 1 2 3 4 5 6 7 8 9 10 11 12 13 14 15 16 17 18 19 20 21 22 23
Song Science #1: How Pros Use 6 Chords to Write Hit Songs
(/) Slide Up  (\) Slide Down  (h) Hammer On  (p) Pull Off  (b) Bend (r) Release (v) Vibrato

Stave 1:

E|-----------------------------------------------|-----------------------------------------------
B|-----------------------------------------------|-----------------------------------------------
G|-----------------------------------------------|-----------------------------------------------
D|-----------------------------------------------|-----------------------------------------------
A|-----------------------------------------------|-----------------------------------------------
E|--2--2-----2--2-----2--2-----2--2-----2-----2--|--2--2-----2--2-----2--2-----2--2-----2-----2--

Stave 2:

E|-----------------------------------------------|-----------------------------------------------
B|-----------------------------------------------|-----------------------------------------------
G|-----------------------------------------------|-----------------------------------------------
D|-----------------------------3--3--------------|-----------------------------3--3--------------
A|-----------4--4-----5--5--------------5-----4--|-----------4--4-----5--5--------------5-----4--
E|--2--2-----------------------------------------|--2--2-----------------------------------------

Stave 3:

E|--------------------------2-----------------------
B|--------------2--------------2--------------------
G|-----------------2-----2--------2--------2--------
D|--------4-----------4--------------4--------4-----
A|-----4-----4--------------------------4--------4--
E|--2-----------------------------------------------

Stave 4:

E|---------------------------------------------------
B|--------------2--------------------2--2h3p2--------
G|--------4--------4-----4--------4------------4-----
D|-----3-----3--------3--------3------------------3--
A|--4-----------------------4------------------------
E|---------------------------------------------------

Stave 5:

E|-----------2--3-----------------------2-----------
B|--------3--------3--------------3--------3-----3--
G|-----2--------------2--------2-----2--------2-----
D|--0--------------------0--0-----------------------
A|--------------------------------------------------
E|--------------------------------------------------

Stave 6:

E|--------------1-----------1--1--------------------
B|--------1--------1-----1--------1--1--------------
G|-----2-----2--------2-----------------2--2--------
D|--3-----------------------------------------3--3--
A|--------------------------------------------------
E|--------------------------------------------------

Stave 7:

E|-----------------------------2--------------------
B|--------------------------------2--------2--------
G|--------------2--------------------2--------2-----
D|--------4--------4-----4-----------------------4--
A|-----4-----4--------4-----------------------------
E|--2-----------------------------------------------

Stave 8:

E|----------------------------------------------------
B|-----------2--2h3p2-----------------2--2h3p2--------
G|--------4------------4-----------4------------4-----
D|-----3------------------3-----3------------------3--
A|--4------------------------4------------------------
E|----------------------------------------------------

Stave 9:

E|-----------2--------2--------------2--------2--
B|--------3--3--------3-----------3--3--------2--
G|-----2-----------2-----------2-----------2-----
D|--0-----------------------0--------------------
A|-----------------------------------------------
E|-----------------------------------------------

Stave 10:

E|-----------1-----------1-----------------5-----------
B|--------1--1-----------1-----------1--------5-----5--
G|-----2--------------2-----------2-----2--------6-----
D|--3--------------------------3-----------------------
A|-----------------------------------------------------
E|-----------------------------------------------------

Stave 11:

E|-----------------------------------------------------------
B|-----------------------------------------------------------
G|-----------------------------------------------------------
D|-----------------------3-----------------------------3-----
A|--------4--------5--5-----5-----------4--------5--5-----5--
E|--2--2-----2--------------------2--2-----2-----------------

Stave 12:

E|--------------------------------------------------------------
B|--------------------------------------------------------------
G|--------------------------------------------------------------
D|--------------------------3-----------------------------3-----
A|-----------4--0--5--5--5-----------------4--0--5--5--5--------
E|--2--2--2--------------------0--2--2--2--------------------0--

Stave 13:

E|------------------------------------------------------------
B|------------------------------------------------------------
G|------------------------------------------------------------
D|--------------------------3---------------------------------
A|-----------4--0--5--5--5-----------------4--0--5--5--5------
E|--2--2--2--------------------0--2--2--2-----------------1v--

Stave 14:

E|-------------------------------------------------------------------------------------------
B|-------------------------------------------------------------------------------------------
G|-------------------------------------------------------------------------------------------
D|-----------------3--3--------------------------------------------3-------------------------
A|-------0h4--0h5----------------0h4--0h5----------------0h4--0h5-------------0h4--0h5-------
E|--0h2---------------------0h2------------1--1-----0h2------------------0h2------------0h1--

Stave 15:

E|--2--2--2--2-----2-----2-----2-----2--2--2--2--2--
B|--2--2--2--2-----2-----2-----2-----2--2--2--2--2--
G|--2--2--2--2-----2-----2-----2-----2--2--2--2--2--
D|--4--4--4--4-----4-----4-----4-----4--4--4--4--4--
A|--4--4--4--4-----4-----4-----4-----4--4--4--4--4--
E|--2--2--2--2-----2-----2-----2-----2--2--2--2--2--

Stave 16:

E|--------------------------------------------------
B|--2--2--2--2-----2-----2-----2-----2--2--2--2--2--
G|--4--4--4--4-----4-----4-----4-----4--4--4--4--4--
D|--3--3--3--3-----3-----3-----3-----3--3--3--3--3--
A|--4--4--4--4-----4-----4-----4-----4--4--4--4--4--
E|--------------------------------------------------

Stave 17:

E|--2--2--2--2-----2-----2-----2-----2--2--2--2--2--
B|--3--3--3--3-----3-----3-----3-----3--3--3--3--3--
G|--2--2--2--2-----2-----2-----2-----2--2--2--2--2--
D|--0--0--0--0-----0-----0-----0-----0--0--0--0--0--
A|--------------------------------------------------
E|--------------------------------------------------

Stave 18:

E|--1--1--1--1-----1-----1-----1-----1--1--1--1--1--
B|--1--1--1--1-----1-----1-----1-----1--1--1--1--1--
G|--2--2--2--2-----2-----2-----2-----2--2--2--2--2--
D|--3--3--3--3-----3-----3-----3-----3--3--3--3--3--
A|--3--3--3--3-----3-----3-----3-----3--3--3--3--3--
E|--1--1--1--1-----1-----1-----1-----1--1--1--1--1--

Stave 19:

E|--1--1--1--1-----1-----1-----5--5--5--5-----5-----5--
B|--1--1--1--1-----1-----1-----5--5--5--5-----5-----5--
G|--2--2--2--2-----2-----2-----6--6--6--6-----6-----6--
D|--3--3--3--3-----3-----3-----7--7--7--7-----7-----7--
A|--3--3--3--3-----3-----3-----7--7--7--7-----7-----7--
E|--1--1--1--1-----1-----1-----5--5--5--5-----5-----5--

Stave 20:

E|---------------------------------------------------------------------------------------------------
B|---------------------------------------------------------------------------------------------------
G|---------------------------------------------------------------------------------------------------
D|-----------------------------------3--------12b14--------------------------------------3--------3--
A|--------4--------------------5--5-----5---------------------4--------------------5--5-----5--------
E|--2--2-----2-----2/14b16------------------------------2--2-----2-----2/12b14-----------------------

Stave 21:

E|--------2--------2--------2--------2--------2-----------4--------4--------4--------4--------4--
B|-----2--------2--------2--------2--------2-----------2--------2--------2--------2--------2-----
G|--2--------2--------2--------2--------2-----------4--------4--------4--------4--------4--------
D|-----------------------------------------------------------------------------------------------
A|-----------------------------------------------------------------------------------------------
E|-----------------------------------------------------------------------------------------------

Stave 22:

E|--------2--------2--------2--------2--------2-----------1--------1--------1--------1--------1--
B|-----3--------3--------3--------3--------3-----------1--------1--------1--------1--------1-----
G|--2--------2--------2--------2--------2-----------2--------2--------2--------2--------2--------
D|-----------------------------------------------------------------------------------------------
A|-----------------------------------------------------------------------------------------------
E|-----------------------------------------------------------------------------------------------

Stave 23:

E|--2--2--2--2--------------------2--2--2--2-----1--1--1--1-----5--
B|--2--2--2--2-----2--2--2--2-----3--3--3--3-----1--1--1--1-----5--
G|--2--2--2--2-----4--4--4--4-----2--2--2--2-----2--2--2--2-----6--
D|--4--4--4--4-----3--3--3--3-----0--0--0--0-----3--3--3--3-----7--
A|--4--4--4--4-----4--4--4--4--------------------3--3--3--3-----7--
E|--2--2--2--2-----------------------------------1--1--1--1-----5--

Stave 24:

E|---------------------------------
B|---------------------------------
G|---------------------------------
D|--4--4--5--5--9--9--7--7--14--4--
A|--4--4--5--5--9--9--7--7--14--4--
E|--2--2--3--3--7--7--5--5--12--2--

Stave 25:

E|-----------------------------------------------------19--21--19--22--21--19------
B|--15\3/17\5/19--21--19--22--21--19-----15\3/17\5/16--------------------------22--
G|---------------------------------------------------------------------------------
D|---------------------------------------------------------------------------------
A|---------------------------------------------------------------------------------
E|---------------------------------------------------------------------------------

Stave 26:

E|-----------------------------------------------------------------
B|--15\3/17\5/17--19--17--15--17--15-----15\3/17\5/22--21--19--17--
G|-----------------------------------------------------------------
D|-----------------------------------------------------------------
A|-----------------------------------------------------------------
E|-----------------------------------------------------------------

Stave 27:

E|-----------------------------------------------------19--21--22-------------
B|--15--3--17--5----------------------15--3--17--5----------------------------
G|-----------------------------------------------------16--18--19-------------
D|--12--0--14--2-----16--19--21\0-----12--0--14--2----------------------------
A|----------------------------------------------------------------------------
E|--------------------------------------------------------------------2/16\5--

http://www.guitartabcreator.com
Guitar Tab Creator is intended to store guitar tab created through the tool. It currently does not support in-line text editing. Any text you place in here will be lost. If you need to comment on your tab, please use the "Tab Notes" section located below.