Sound will begin in 5 seconds

qwertyuiop

01234567891011121314151617181920212223
E
B
G
D
A
E
B
0 1 2 3 4 5 6 7 8 9 10 11 12 13 14 15 16 17 18 19 20 21 22 23
Song Science #1: How Pros Use 6 Chords to Write Hit Songs
(/) Slide Up  (\) Slide Down  (h) Hammer On  (p) Pull Off  (b) Bend (r) Release (v) Vibrato

Stave 1:

E|-----------------------------------------------------------------------------------------------------
B|-----------------------------------------------------------------------------------------------------
G|-----------------------------------------------------------------------------------------------------
D|-----------------------------------------------------------------------------------------------------
A|--0--0--0--2--0--0--3--0--0--5--0--0--6--0--7--0-----------------------------------------------------
E|--------------------------------------------------0--0--0--3--0--0--5--0--6--7--8--0--10--11--12--0--

Stave 2:

E|---------------------------------------------------------------------------------------------------
B|---------------------------------------------------------------------------------------------------
G|---------------------------------------------------------------------------------------------------
D|--0--0--0--12--0--0--10h12--0--0--0--5--0--0--3h5--------------------------------------------------
A|---------------------------------------------------0--0--0--2--0--0--3--0--0--5--0--0--6--0--7--0--
E|---------------------------------------------------------------------------------------------------

Stave 3:

E|--------------------------
B|--------------------------
G|--------------------------
D|--------------------------
A|--0--0--0--2--0--0--3--0--
E|--------------------------

Stave 4:

E|--------------------------------------------------------------------------------------------------
B|--------------------------------------------------------------------------------------------------
G|--------5-----------------------5-----------------------3-----------------------3-----------------
D|--------------------5-----------------------5-----------------------5-----------------------5-----
A|--3--3-----3--3--3-----3--3--3-----3--3--3-----3--3--3-----3--3--3-----3--3--3-----3--3--3-----3--
E|--------------------------------------------------------------------------------------------------

Stave 5:

E|--------------------------------------------------------------------------------------------------
B|--------------------------------------------------------------------------------------------------
G|--------2-----------------------2-----------------------1-----------------------1-----------------
D|--------------------3-----------------------3-----------------------2-----------------------2-----
A|--3--3-----3--3--3-----3--3--3-----3--3--3-----3--3--3-----3--3--3-----3--3--3-----3--3--3-----3--
E|--------------------------------------------------------------------------------------------------

Stave 6:

E|--------------------------------------------------------
B|--------------------------------------------------------
G|-----7-----9-----10------12-----7-----9-----10------12--
D|--------------------------------------------------------
A|--5-----7-----8------10------5-----7-----8------10------
E|--------------------------------------------------------

Stave 7:

E|--------------------------------------------------------------------------------------------
B|--------------------------------------------------------------------------------------------
G|--------------------------------------------------------------------------------------------
D|--------------------------------------------------------------------------------------------
A|--5-----6-----7-----6-----------------------------5-----6-----7-----------------------------
E|--------------------------7-----5-----4-----5-----------------------7-----5-----4-----5-----

Stave 8:

E|--------------------------------------------------------------------------
B|--------------------------------------------------------------------------
G|--------------------------------------------------------------------------
D|-----7-----8-----9-----8-----------------------------7-----8-----9-----8--
A|--5-----6-----7-----6--------7-----5-----4-----5--5-----6-----7-----6-----
E|--------------------------7-----5-----4-----5-----------------------------

Stave 9:

E|--------------------------------------------------
B|--------------------------------------------------
G|--------------------------------------------------
D|-----7-----7-----7-----7-----6-----6-----6-----6--
A|--5-----5-----5-----5-----5-----5-----5-----5-----
E|--------------------------------------------------

Stave 10:

E|-------------------------------------------------------------------------------------------------
B|-------------------------------------------------------------------------------------------------
G|-------------------------------------------------------------------------------------------------
D|-------------------------------------------------------------------------------------------------
A|-------------------------------------------------------------------------------------------------
E|--0--0--0--3--0--0--5--0--------0--0--0--3--0--0--5--0--------0--0--0--3--0--0--5--0--6--7--8\0--

Stave 11:

E|----------------------------------------------------
B|----------------------------------------------------
G|----------------------------------------------------
D|----------------------------------------------------
A|----------------------------------------------------
E|--0--0--0--3--0--0--5--0--6--7--8--0--10--11--12\0--

Stave 12:

E|-----------------------------------
B|-----------------------------------
G|-----------------------------------
D|-----------------------------------
A|-----------------------------------
E|--0--0--3--0--5--0--6--0--7--10\0--

Stave 13:

E|-------------------------------
B|-------------------------------
G|-------------------------------
D|-------------------------------
A|-------------------------------
E|--0--0--3--0--5--0--6--0--7\1--

http://www.guitartabcreator.com
Guitar Tab Creator is intended to store guitar tab created through the tool. It currently does not support in-line text editing. Any text you place in here will be lost. If you need to comment on your tab, please use the "Tab Notes" section located below.