Sound will begin in 5 seconds

Act 1 Bass

01234567891011121314151617181920212223
E
B
G
D
A
E
B
0 1 2 3 4 5 6 7 8 9 10 11 12 13 14 15 16 17 18 19 20 21 22 23
Song Science #1: How Pros Use 6 Chords to Write Hit Songs
(/) Slide Up  (\) Slide Down  (h) Hammer On  (p) Pull Off  (b) Bend (r) Release (v) Vibrato

Stave 1:

G|-----------------------------------------------------------------------------------------------
D|--------3h5--3h5--3h5--3h5--3h5--------5h6--5h6--5h6--5h6--5h6--------1h3--1h3--1h3--1h3--1h3--
A|--3--3---------------------------3--3---------------------------3--3---------------------------
E|-----------------------------------------------------------------------------------------------

Stave 2:

G|-----------------------------
D|--------1h3--1h3--1h3--1--0--
A|--3--3-----------------------
E|-----------------------------

Stave 3:

G|-------------------------------------------------------------------------------------------------
D|-------------------------------------------------------------------------------------------------
A|--3--3--3--3--3--3--3--3--3--3--3--3--3--3--3--3\1--1--1--1--1--1--1--1--1--1--1--1--1--1--1--1--
E|-------------------------------------------------------------------------------------------------

Stave 4:

G|-----------------------------------------------------------------------------------------------
D|-----------------------------------------------------------------------------------------------
A|-----------------------------------------------------------------------------------------------
E|--4--4--4--4--4--4--4--4--4--4--4--4--4--4--4--4\3--3--3--3--3--3--3--3/4--4--4--4\3--3--3--3--

Stave 5:

G|------------------------------------------------------------------------------------------------
D|------------------------------------------------------------------------------------------------
A|--------------------------------------------------6--6--6--6--6--6--6--6\5--5--5--5\3--3--3--3--
E|--1--1--1--1--1--1--1--1--1--1--1--1--1--1--1--1------------------------------------------------

Stave 6:

G|----------------------------------------------------------------------------------------
D|----------------------------------------------------------------------------------------
A|--6--6--6--6--6--6--6--6--6--6--6--6/10--10--10--10\8--8--8--8--8--8--8--8--8--8--8--8--
E|----------------------------------------------------------------------------------------

Stave 7:

G|------------------------------------------------------------------------
D|------------------------------------------------------------------------
A|--11--11--11--11\3--3--3--3--3--3--3--3/15--15--15--15--15--15--15--15--
E|------------------------------------------------------------------------

Stave 8:

G|-------------------------------------------------------------------
D|-------------------------------------------------------------------
A|--6--6--6--6/18--18--18--18\5--5--5--5/17--17--17--17--------3--3--
E|-------------------------------------------------------------------

Stave 9:

G|--------------------------------------------------------------------------
D|--------------------------------------------------------------------------
A|--3--3-----3--3-----1--1-----1--1-----------------------------------------
E|--------------------------------------4--4-----4--4-----3--3-----4-----3--

Stave 10:

G|-----------------------------------------
D|-----------------------------------------
A|--------------------6--6-----5-----3-----
E|--1--1-----1--1--------------------------

Stave 11:

G|----------------------------------------------------
D|----------------------------------------------------
A|--6--6--6--10--8--8--8--11--3--3--3--3--6--6--5--3--
E|----------------------------------------------------

Stave 12:

G|--------------------
D|--------------------
A|--3--3--3--3--3--3--
E|--------------------

Stave 13:

G|---------------------------------------------------------------------
D|-----------------------------------------------17--15--13--12--10\0--
A|--3--3--------6--6--------8--8--------6--6---------------------------
E|---------------------------------------------------------------------

Stave 14:

G|--------------------------------------------------------------------------------
D|--------5b6--5b6--5b6--5b6--------6b7--6b7--6b7--6b7--------8b9--8b9--8b9--8b9--
A|--3--3----------------------3--3----------------------3--3----------------------
E|--------------------------------------------------------------------------------

Stave 15:

G|-------------------------------
D|--------10b12--10b12-----------
A|--3--3----------------3--------
E|-------------------------12\0--

http://www.guitartabcreator.com
Guitar Tab Creator is intended to store guitar tab created through the tool. It currently does not support in-line text editing. Any text you place in here will be lost. If you need to comment on your tab, please use the "Tab Notes" section located below.