Sound will begin in 5 seconds

Act 1

Chords
01234567891011121314151617181920212223
E
B
G
D
A
E
B
0 1 2 3 4 5 6 7 8 9 10 11 12 13 14 15 16 17 18 19 20 21 22 23
Song Science #1: How Pros Use 6 Chords to Write Hit Songs
(/) Slide Up  (\) Slide Down  (h) Hammer On  (p) Pull Off  (b) Bend (r) Release (v) Vibrato

Stave 1:

D|----------------------------------------------------------------
A|----------------------------------------------------------------
F|----------------------------------------------------------------
C|----------------------------------------------------------------
G|----------------------------------------------------------------
C|--0--0--5h7--5h7--5h7--5h7--5h7--0--0--7h8--7h8--7h8--7h8--7h8--

Stave 2:

D|------------------------------------------------------------
A|------------------------------------------------------------
F|------------------------------------------------------------
C|------------------------------------------------------3--2--
G|------------------------------------------------------3--2--
C|--0--0--3h5--3h5--3h5--3h5--3h5--0--0--3h5--3h5--3h5--3--2--

Stave 3:

D|----------------------------------------------------------------
A|----------------------------------------------------------------
F|----------------------------------------------------------------
C|----------------------------------------------------------------
G|----------------------------------------------------------------
C|--0--0--5h7--5h7--5h7--5h7--5h7--0--0--7h8--7h8--7h8--7h8--7h8--

Stave 4:

D|--------------------------------------------------------------------
A|--------------------------------------------------------------------
F|--------------------------------------------------------------------
C|--------------------------------------------------------------------
G|--------------------------------------------------------------------
C|--0--0--3h5--3h5--3h5--3h5--3h5--0--0--10h12--10h12--10h12--15--11--

Stave 5:

D|----------------------------------
A|----------------------------------
F|----------------------------------
C|--12--10--8--7--8--7--5--3--2--0--
G|--12--10--8--7--8--7--5--3--2--0--
C|--12--10--8--7--8--7--5--3--2--0--

Stave 6:

D|--------------------------------------------------------
A|--------------------------------------------------------
F|--------------------------------------------------------
C|--3--7--5--8--0--3--2--0--3--7--5--8--0--3--------------
G|--3--7--5--8--0--3--2--0--3--7--5--8--0--3--------------
C|--3--7--5--8--0--3--2--0--3--7--5--8--0--3--15p0--11p0--

Stave 7:

D|----------------------------------
A|----------------------------------
F|----------------------------------
C|--12--10--8--7--8--7--5--3--2--0--
G|--12--10--8--7--8--7--5--3--2--0--
C|--12--10--8--7--8--7--5--3--2--0--

Stave 8:

D|--------------------------------------------------------
A|--------------------------------------------------------
F|--------------------------------------------------------
C|--3--7--5--8--0--3--2--0--3--7--5--8--0--3--------------
G|--3--7--5--8--0--3--2--0--3--7--5--8--0--3--------------
C|--3--7--5--8--0--3--2--0--3--7--5--8--0--3--15p0--11p0--

Stave 9:

D|----------------------------------------------------------------
A|----------------------------------------------------------------
F|----------------------------------------------------------------
C|----------------------------------------------------------------
G|----------------------------------------------------------------
C|--0--0--5h7--5h7--5h7--5h7--5h7--0--0--7h8--7h8--7h8--7h8--7h8--

Stave 10:

D|------------------------------------------------------------
A|------------------------------------------------------------
F|------------------------------------------------------------
C|------------------------------------------------------3--2--
G|------------------------------------------------------3--2--
C|--0--0--3h5--3h5--3h5--3h5--3h5--0--0--3h5--3h5--3h5--3--2--

Stave 11:

D|------------------------------------------------------x--
A|------------------------------------------------------x--
F|------------------------------------------------------x--
C|------------------------------------------------------x--
G|------------------------------------------------------x--
C|--0--0--3h5--3h5--3h5--3h5--3h5--0--0--3h5--3h5--3h5--x--

Stave 12:

D|--------------------------------------------------------------------
A|--------------------------------------------------------------------
F|--------------------------------------------------------------------
C|--------------------------------------------------------------------
G|--------------------------------------------------------------------
C|--0--0--3h5--3h5--3h5--3h5--3h5--0--0--10h12--10h12--10h12--15--11--

Stave 13:

D|------------------------------------------------------------------------------------------------------------------
A|------------------------------------------------------------------------------------------------------------------
F|--------12br---10h12p10--12--------9br---7h9-----------11h12h14--14b16--------------------------------------------
C|----------------------------------------------7-------------------------14--15--17-----19--20--19--17--15--14-----
G|------------------------------------------------------------------------------------------------------------------
C|--0--0-----------------------0--0----------------0--0----------------------------------------------------------0--

Stave 14:

D|--------------------------------------------------------------------------------------------------
A|--------------------------------------------------------------------------------------------------
F|--------------------------------------------------------------------------------------------------
C|--3--------------3--------3-----------7-----------5--------------5--------5-----------8-----------
G|-----3-----3--------3--------3-----3-----7-----7-----5-----5--------5--------5-----5-----8-----8--
C|--------3-----3--------3--------3-----------7-----------5-----5--------5--------5-----------8-----

Stave 15:

D|--------------------------------------------------------------------------------------------------
A|--------------------------------------------------------------------------------------------------
F|--------------------------------------------------------------------------------------------------
C|--0--------------0--------0--------------0--------3--------------3--------2-----------0-----------
G|-----0-----0--------0--------0-----0--------0--------3-----3--------3--------2-----2-----0-----0--
C|--------0-----0--------0--------0-----0--------0--------3-----3--------3--------2-----------0-----

Stave 16:

D|-----------------------------------
A|-----------------------------------
F|-----------------------------------
C|--3--7--5--8--0-----3--------------
G|--3--7--5--8--0-----3--------------
C|--3--7--5--8--0-----3--15p0--11p0--

Stave 17:

D|----------------------------------------------------------------------------------------
A|----------------------------------------------------------------------------------------
F|----------------------------------------------------------------------------------------
C|----------------------------------------------------------------------------------------
G|----------------------------------------------------------------------------------------
C|--0--0--7b8--7b8--7b8--7b8--0--0--8b9--8b9--8b9--8b9--0--0--10b11--10b11--10b11--10b11--

Stave 18:

D|-------------------------------
A|-------------------------------
F|-------------------------------
C|-------------------------------
G|-------------------------------
C|--0--0--12b14--12b14--0--7/21--

Stave 19:

D|---------------------------------------------
A|---------------------------------------------
F|---------------------------------------------
C|------------------------------------------0--
G|------------------------------------------0--
C|--0--0--3h5--3h5--3h5--3h5--3h5--0--0--21\0--

http://www.guitartabcreator.com
Guitar Tab Creator is intended to store guitar tab created through the tool. It currently does not support in-line text editing. Any text you place in here will be lost. If you need to comment on your tab, please use the "Tab Notes" section located below.