Sound will begin in 5 seconds

WAKE

01234567891011121314151617181920212223
E
B
G
D
A
E
B
0 1 2 3 4 5 6 7 8 9 10 11 12 13 14 15 16 17 18 19 20 21 22 23
(/) Slide Up  (\) Slide Down  (h) Hammer On  (p) Pull Off  (b) Bend (r) Release (v) Vibrato

(W|WW) Whole (H|HH) Half (Q|QQ) Quarter (E|EE) 8th (S|SS) 16th (T|TT) 32nd (X|XX) 64th

Stave 1:
t: E E E E E E E E E E E E E E E E E E E E E E E E E E E E E E E E
G|-----------------|-----------------|-----------------|-----------------|-
D|-----------------|-----------------|-----------------|-----------------|-
A|-3-3-3-3-3-3-3-3-|-5-5-5-5-5-5-5-5-|-2-2-2-2-2-2-2-2-|-7-7-7-7-7-7-7-7-|-
E|-----------------|-----------------|-----------------|-----------------|-

Stave 2:
t: W W W W W W W W
G|---|---|---|---|---|---|---|---|-
D|---|---|---|---|---|---|---|---|-
A|-3-|-5-|-2-|-7-|-3-|-5-|-2-|-7-|-
E|---|---|---|---|---|---|---|---|-

Stave 3:
t: Q Q Q Q Q Q Q Q Q Q Q Q Q Q Q Q
G|---------|---------|---------|---------|-
D|---------|---------|---------|---------|-
A|-3-3-3-3-|-5-5-5-5-|-2-2-2-2-|-7-7-7-7-|-
E|---------|---------|---------|---------|-

Stave 4:
t: Q Q Q Q Q Q Q Q Q Q Q Q Q Q Q Q
G|---------|---------|---------|---------
D|---------|---------|---------|---------
A|-3-3-3-3-|-5-5-5-5-|-2-2-2-2-|-7-7-7-7-
E|---------|---------|---------|---------

Stave 5:
t: Q Q Q Q Q Q Q Q Q Q Q Q Q Q Q Q
G|---------|---------|---------|---------
D|---------|---------|---------|---------
A|-3-3-3-3-|-5-5-5-5-|-2-2-2-2-|-7-7-7-7-
E|---------|---------|---------|---------

Stave 6:
t: E E E E E E E E E E E E E E E E E E E E E E E E E E E E E E E E
G|-----------------|-----------------|-----------------|-----------------|-
D|-----------------|-----------------|-----------------|-----------------|-
A|-3-3-3-3-3-3-3-3-|-5-5-5-5-5-5-5-5-|-2-2-2-2-2-2-2-2-|-7-7-7-7-7-7-7-7-|-
E|-----------------|-----------------|-----------------|-----------------|-

Stave 7:
t: E E E E E E E E E E E E E E E E E E E E E E E E E E E E E E E E
G|-----------------|-----------------|-----------------|-----------------
D|-----------------|-----------------|-----------------|-----------------
A|-3-3-3-3-3-3-3-3-|-5-5-5-5-5-5-5-5-|-2-2-2-2-2-2-2-2-|-7-7-7-7-7-7-7-7-
E|-----------------|-----------------|-----------------|-----------------

Stave 8:
t: Q Q Q Q Q Q Q Q Q Q Q Q Q Q Q Q
G|---------|---------|---------|---------
D|---------|---------|---------|---------
A|-3-3-3-3-|-5-5-5-5-|-2-2-2-2-|-7-7-7-7-
E|---------|---------|---------|---------

http://www.guitartabcreator.com
Guitar Tab Creator is intended to store guitar tab created through the tool. It currently does not support in-line text editing. Any text you place in here will be lost. If you need to comment on your tab, please use the "Tab Notes" section located below.