Use Somebody

Chords

01234567891011121314151617181920212223
E
B
G
D
A
E
B
0 1 2 3 4 5 6 7 8 9 10 11 12 13 14 15 16 17 18 19 20 21 22 23
(/) Slide Up  (\) Slide Down  (h) Hammer On  (p) Pull Off  (b) Bend (r) Release (v) Vibrato

Stave 1:

G|-----------------|-----------------|-----------------|-----------------|-----
D|-----------------|-----------------|-----------------|-----------------|-----
A|-3-3-3-3-3-3-3-3-|-----------------|-----------------|-----------------|-----
E|-----------------|-0-0-0-0-0-0-0-0-|-1-1-1-1-1-1-1-1-|-1-1-1-1-1-1-1-1-|-2-x-

Stave 2:

G|-----------------|-----------------|-----------------|-----------------|-
D|-----------------|-----------------|-----------------|-----------------|-
A|-----------------|-3-3-3-3-3-3-3-3-|-----------------|-----------------|-
E|-5-5-5-5-5-5-5-5-|-----------------|-1-1-1-1-1-1-1-1-|-1-1-1-1-1-1-1-1-|-

Stave 3:

G|-----------------|-----------------|---
D|-----------------|-----------------|---
A|-----------------|-3-3-3-3-3-3-3-3-|---
E|-5-5-5-5-5-5-5-5-|-----------------|-1-

Stave 4:

G|-----------------|-----------------|-----------------|-----------------|-----------------|-------------
D|-----------------|-----------------|-----------------|-----------------|-----------------|-------------
A|-3-3-3-3-3-3-3-3-|-----------------|-----------------|-----------------|-3-3-3-3-3-3-3-3-|-------------
E|-----------------|-0-0-0-0-0-0-0-0-|-1-1-1-1-1-1-1-1-|-1-1-1-1-1-1-1-1-|-----------------|-0-0-0-0-0-0-

Stave 5:

G|-----------------|-----------------|-----------------|-----------------|-----------------|-
D|-----------------|-----------------|-----------------|-----------------|-----------------|-
A|-----------------|-----------------|-----------------|-3-3-3-3-3-3-3-3-|-----------------|-
E|-1-1-1-1-1-1-1-1-|-1-1-1-1-1-1-1-1-|-5-5-5-5-5-5-5-5-|-----------------|-1-1-1-1-1-1-1-1-|-

Stave 6:

G|-----------------|-----------------|-----------------|-----------------|-----------------
D|-----------------|-----------------|-----------------|-----------------|-----------------
A|-----------------|-----------------|-3-3-3-3-3-3-3-3-|-----------------|-----------------
E|-1-1-1-1-1-1-1-1-|-5-5-5-5-5-5-5-5-|-----------------|-1-1-1-1-1-1-1-1-|-1-1-1-1-1-1-1-1-

							http://www.guitartabcreator.com
Tab Notes
repeat Stave 1 & 2
Instruments
{"strings":[[[".",".",".",".",".",".",".",".","|",".",".",".",".",".",".",".",".","|",".",".",".",".",".",".",".",".","|",".",".",".",".",".",".",".",".","|",".","."],[".",".",".",".",".",".",".",".","|",".",".",".",".",".",".",".",".","|",".",".",".",".",".",".",".",".","|",".",".",".",".",".",".",".",".","|",".","."],[3,3,3,3,3,3,3,3,"|",".",".",".",".",".",".",".",".","|",".",".",".",".",".",".",".",".","|",".",".",".",".",".",".",".",".","|",".","."],[".",".",".",".",".",".",".",".","|",0,0,0,0,0,0,0,0,"|",1,1,1,1,1,1,1,1,"|",1,1,1,1,1,1,1,1,"|",2,"x"]],[[".",".",".",".",".",".",".",".","|",".",".",".",".",".",".",".",".","|",".",".",".",".",".",".",".",".","|",".",".",".",".",".",".",".",".","|"],[".",".",".",".",".",".",".",".","|",".",".",".",".",".",".",".",".","|",".",".",".",".",".",".",".",".","|",".",".",".",".",".",".",".",".","|"],[".",".",".",".",".",".",".",".","|",3,3,3,3,3,3,3,3,"|",".",".",".",".",".",".",".",".","|",".",".",".",".",".",".",".",".","|"],[5,5,5,5,5,5,5,5,"|",".",".",".",".",".",".",".",".","|",1,1,1,1,1,1,1,1,"|",1,1,1,1,1,1,1,1,"|"]],[[".",".",".",".",".",".",".",".","|",".",".",".",".",".",".",".",".","|","."],[".",".",".",".",".",".",".",".","|",".",".",".",".",".",".",".",".","|","."],[".",".",".",".",".",".",".",".","|",3,3,3,3,3,3,3,3,"|","."],[5,5,5,5,5,5,5,5,"|",".",".",".",".",".",".",".",".","|",1]],[[".",".",".",".",".",".",".",".","|",".",".",".",".",".",".",".",".","|",".",".",".",".",".",".",".",".","|",".",".",".",".",".",".",".",".","|",".",".",".",".",".",".",".",".","|",".",".",".",".",".","."],[".",".",".",".",".",".",".",".","|",".",".",".",".",".",".",".",".","|",".",".",".",".",".",".",".",".","|",".",".",".",".",".",".",".",".","|",".",".",".",".",".",".",".",".","|",".",".",".",".",".","."],[3,3,3,3,3,3,3,3,"|",".",".",".",".",".",".",".",".","|",".",".",".",".",".",".",".",".","|",".",".",".",".",".",".",".",".","|",3,3,3,3,3,3,3,3,"|",".",".",".",".",".","."],[".",".",".",".",".",".",".",".","|",0,0,0,0,0,0,0,0,"|",1,1,1,1,1,1,1,1,"|",1,1,1,1,1,1,1,1,"|",".",".",".",".",".",".",".",".","|",0,0,0,0,0,0]],[[".",".",".",".",".",".",".",".","|",".",".",".",".",".",".",".",".","|",".",".",".",".",".",".",".",".","|",".",".",".",".",".",".",".",".","|",".",".",".",".",".",".",".",".","|"],[".",".",".",".",".",".",".",".","|",".",".",".",".",".",".",".",".","|",".",".",".",".",".",".",".",".","|",".",".",".",".",".",".",".",".","|",".",".",".",".",".",".",".",".","|"],[".",".",".",".",".",".",".",".","|",".",".",".",".",".",".",".",".","|",".",".",".",".",".",".",".",".","|",3,3,3,3,3,3,3,3,"|",".",".",".",".",".",".",".",".","|"],[1,1,1,1,1,1,1,1,"|",1,1,1,1,1,1,1,1,"|",5,5,5,5,5,5,5,5,"|",".",".",".",".",".",".",".",".","|",1,1,1,1,1,1,1,1,"|"]],[[".",".",".",".",".",".",".",".","|",".",".",".",".",".",".",".",".","|",".",".",".",".",".",".",".",".","|",".",".",".",".",".",".",".",".","|",".",".",".",".",".",".",".","."],[".",".",".",".",".",".",".",".","|",".",".",".",".",".",".",".",".","|",".",".",".",".",".",".",".",".","|",".",".",".",".",".",".",".",".","|",".",".",".",".",".",".",".","."],[".",".",".",".",".",".",".",".","|",".",".",".",".",".",".",".",".","|",3,3,3,3,3,3,3,3,"|",".",".",".",".",".",".",".",".","|",".",".",".",".",".",".",".","."],[1,1,1,1,1,1,1,1,"|",5,5,5,5,5,5,5,5,"|",".",".",".",".",".",".",".",".","|",1,1,1,1,1,1,1,1,"|",1,1,1,1,1,1,1,1]]],"numberofstrings":4,"notes":["G","D","A","E"],"capo":0,"stringnotes":["G2","D2","A1","E1"],"comments":["Stave 1:","Stave 2:","Stave 3:","Stave 4:","Stave 5:","Stave 6:"],"timing":[[null,null,null,null,null,null,null,null,null,null,null,null,null,null,null,null,null,null,null,null,null,null,null,null,null,null,null,null,null,null,null,null,null,null,null,null,null,null],[null,null,null,null,null,null,null,null,null,null,null,null,null,null,null,null,null,null,null,null,null,null,null,null,null,null,null,null,null,null,null,null,null,null,null],[null,null,null,null,null,null,null,null,null,null,null,null,null,null,null,null,null,null,null],[null,null,null,null,null,null,null,null,null,null,null,null,null,null,null,null,null,null,null,null,null,null,null,null,null,null,null,null,null,null,null,null,null,null,null,null,null,null,null,null,null,null,null,null,null,null,null,null,null,null,null],[null,null,null,null,null,null,null,null,null,null,null,null,null,null,null,null,null,null,null,null,null,null,null,null,null,null,null,null,null,null,null,null,null,null,null,null,null,null,null,null,null,null,null,null],[null,null,null,null,null,null,null,null,null,null,null,null,null,null,null,null,null,null,null,null,null,null,null,null,null,null,null,null,null,null,null,null,null,null,null,null,null,null,null,null,null,null,null,null]],"timingvisible":false,"tabcounter":44,"stave":5,"totalstaves":6,"instrument":"4bass","selectedtuning":"4bass","version":"13"}

Member for

3 years 8 months
Submitted by lancegragg on Thu, 2020-10-15 10:55