REDNECK WOMAN

Chords

01234567891011121314151617181920212223
E
B
G
D
A
E
B
0 1 2 3 4 5 6 7 8 9 10 11 12 13 14 15 16 17 18 19 20 21 22 23
(/) Slide Up  (\) Slide Down  (h) Hammer On  (p) Pull Off  (b) Bend (r) Release (v) Vibrato

iNTRO

G|---|-|---|-----------|-----|-------|-------3-|-----
D|-5-|-|-5-|---------3-|-5---|-5---3-|-5-3-----|-5-5-
A|---|-|---|-------5---|---5-|---5---|-----5---|-----
E|---|-|---|-----------|-----|-------|---------|-----

VS 1

G|-----|-------|-----|-------|-----|-------|-----|-----|-5---|-5-----|-5---|-5-5-----
D|-5---|-5---3-|-5---|-5---3-|-5---|-5---3-|-5-7-|-8-9-|---5-|---5-8-|---5-|-----8-7-
A|---5-|---5---|---5-|---5---|---5-|---5---|-----|-----|-----|-------|-----|---------
E|-----|-------|-----|-------|-----|-------|-----|-----|-----|-------|-----|---------

VS 1

G|-----|-------|-----|---3-5-|-7---|-7---5-|-7---|-7---7-6-|-5---|-5---3-|-5-|--------
D|-5---|-5---3-|-5---|-5-----|---7-|---7---|---7-|---7-----|---5-|---5---|---|------3-
A|---5-|---5---|---5-|-------|-----|-------|-----|---------|-----|-------|---|----5---
E|-----|-------|-----|-------|-----|-------|-----|---------|-----|-------|---|--------

cHORUS

G|-----|-------|-----|-------|-----|-------|---------|---------|-5---|-5-----|-5---
D|-5---|-5---3-|-5---|-5---3-|-5---|-5---3-|-5-5-7-7-|-8-8-9-9-|---5-|---5-8-|---5-
A|---5-|---5---|---5-|---5---|---5-|---5---|---------|---------|-----|-------|-----
E|-----|-------|-----|-------|-----|-------|---------|---------|-----|-------|-----

CHORUS                                                                    *Last Chorus go to CODA

G|-5-5-----|-----|-------|-----|---4-5-|-7---|-7---5-|-7---|-7---7-6-|-5-|-|-5-5-
D|-----8-7-|-5---|-5---3-|-5---|-5-----|---7-|---7---|---7-|---7-----|---|-|-----
A|---------|---5-|---5---|---5-|-------|-----|-------|-----|---------|---|-|-----
E|---------|-----|-------|-----|-------|-----|-------|-----|---------|---|-|-----

CHORUS                              BACK TO VERSE  after 2nd X go to solo

G|-5-3-|-----|-------|-----|-------3-
D|-----|-5---|-5---3-|-5---|-5-3-----
A|-----|---5-|---5---|---5-|-----5---
E|-----|-----|-------|-----|---------

SOLO

G|---------|-5-----|-5-----|-5-5-----|-5-5-----|-----|---------|-5---|-
D|-5-7-8-9-|---5-8-|---5-8-|-----5-8-|-----8-7-|-5---|-5-7-8-9-|---5-|-
A|---------|-------|-------|---------|---------|---5-|---------|-----|-
E|---------|-------|-------|---------|---------|-----|---------|-----|-

SOLO                                        to Chorus

G|-5-----|-5-5---|-5-5-----|----------|-7-5-4-2-|-
D|---5-8-|-----5-|-----5-6-|-7-7-9-11-|---------|-
A|-------|-------|---------|----------|---------|-
E|-------|-------|---------|----------|---------|-

CODA

G|-5-5-|-5-3-|-----|-------|-----|-------|-----|-------3-|---|---
D|-----|-----|-5---|-5---3-|-5---|-5---3-|-5---|-5-5-----|-5-|-5-
A|-----|-----|---5-|---5---|---5-|---5---|---5-|-----5---|---|---
E|-----|-----|-----|-------|-----|-------|-----|---------|---|---

							http://www.guitartabcreator.com
Instruments
{"strings":[[[".","|","|",".","|","_","_",".",".","|",".",".","|",".",".",".","|",".",".",".",3,"|",".","."],[5,"|","|",5,"|","_","_",".",3,"|",5,".","|",5,".",3,"|",5,3,".",".","|",5,5],[".","|","|",".","|","_","_",5,".","|",".",5,"|",".",5,".","|",".",".",5,".","|",".","."],[".","|","|",".","|","_","_",".",".","|",".",".","|",".",".",".","|",".",".",".",".","|",".","."]],[[".",".","|",".",".",".","|",".",".","|",".",".",".","|",".",".","|",".",".",".","|",".",".","|",".",".","|",5,".","|",5,".",".","|",5,".","|",5,5,".","."],[5,".","|",5,".",3,"|",5,".","|",5,".",3,"|",5,".","|",5,".",3,"|",5,7,"|",8,9,"|",".",5,"|",".",5,8,"|",".",5,"|",".",".",8,7],[".",5,"|",".",5,".","|",".",5,"|",".",5,".","|",".",5,"|",".",5,".","|",".",".","|",".",".","|",".",".","|",".",".",".","|",".",".","|",".",".",".","."],[".",".","|",".",".",".","|",".",".","|",".",".",".","|",".",".","|",".",".",".","|",".",".","|",".",".","|",".",".","|",".",".",".","|",".",".","|",".",".",".","."]],[[".",".","|",".",".",".","|",".",".","|",".",3,5,"|",7,".","|",7,".",5,"|",7,".","|",7,".",7,6,"|",5,".","|",5,".",3,"|",5,"|","_",".","."],[5,".","|",5,".",3,"|",5,".","|",5,".",".","|",".",7,"|",".",7,".","|",".",7,"|",".",7,".",".","|",".",5,"|",".",5,".","|",".","|","_",".",3],[".",5,"|",".",5,".","|",".",5,"|",".",".",".","|",".",".","|",".",".",".","|",".",".","|",".",".",".",".","|",".",".","|",".",".",".","|",".","|","_",5,"."],[".",".","|",".",".",".","|",".",".","|",".",".",".","|",".",".","|",".",".",".","|",".",".","|",".",".",".",".","|",".",".","|",".",".",".","|",".","|","_",".","."]],[[".",".","|",".",".",".","|",".",".","|",".",".",".","|",".",".","|",".",".",".","|",".",".",".",".","|",".",".",".",".","|",5,".","|",5,".",".","|",5,"."],[5,".","|",5,".",3,"|",5,".","|",5,".",3,"|",5,".","|",5,".",3,"|",5,5,7,7,"|",8,8,9,9,"|",".",5,"|",".",5,8,"|",".",5],[".",5,"|",".",5,".","|",".",5,"|",".",5,".","|",".",5,"|",".",5,".","|",".",".",".",".","|",".",".",".",".","|",".",".","|",".",".",".","|",".","."],[".",".","|",".",".",".","|",".",".","|",".",".",".","|",".",".","|",".",".",".","|",".",".",".",".","|",".",".",".",".","|",".",".","|",".",".",".","|",".","."]],[[5,5,".",".","|",".",".","|",".",".",".","|",".",".","|",".",4,5,"|",7,".","|",7,".",5,"|",7,".","|",7,".",7,6,"|",5,"|","|",5,5],[".",".",8,7,"|",5,".","|",5,".",3,"|",5,".","|",5,".",".","|",".",7,"|",".",7,".","|",".",7,"|",".",7,".",".","|",".","|","|",".","."],[".",".",".",".","|",".",5,"|",".",5,".","|",".",5,"|",".",".",".","|",".",".","|",".",".",".","|",".",".","|",".",".",".",".","|",".","|","|",".","."],[".",".",".",".","|",".",".","|",".",".",".","|",".",".","|",".",".",".","|",".",".","|",".",".",".","|",".",".","|",".",".",".",".","|",".","|","|",".","."]],[[5,3,"|",".",".","|",".",".",".","|",".",".","|",".",".",".",3],[".",".","|",5,".","|",5,".",3,"|",5,".","|",5,3,".","."],[".",".","|",".",5,"|",".",5,".","|",".",5,"|",".",".",5,"."],[".",".","|",".",".","|",".",".",".","|",".",".","|",".",".",".","."]],[[".",".",".",".","|",5,".",".","|",5,".",".","|",5,5,".",".","|",5,5,".",".","|",".",".","|",".",".",".",".","|",5,".","|"],[5,7,8,9,"|",".",5,8,"|",".",5,8,"|",".",".",5,8,"|",".",".",8,7,"|",5,".","|",5,7,8,9,"|",".",5,"|"],[".",".",".",".","|",".",".",".","|",".",".",".","|",".",".",".",".","|",".",".",".",".","|",".",5,"|",".",".",".",".","|",".",".","|"],[".",".",".",".","|",".",".",".","|",".",".",".","|",".",".",".",".","|",".",".",".",".","|",".",".","|",".",".",".",".","|",".",".","|"]],[[5,".",".","|",5,5,".","|",5,5,".",".","|",".",".",".",".","|",7,5,4,2,"|"],[".",5,8,"|",".",".",5,"|",".",".",5,6,"|",7,7,9,11,"|",".",".",".",".","|"],[".",".",".","|",".",".",".","|",".",".",".",".","|",".",".",".",".","|",".",".",".",".","|"],[".",".",".","|",".",".",".","|",".",".",".",".","|",".",".",".",".","|",".",".",".",".","|"]],[[5,5,"|",5,3,"|",".",".","|",".",".",".","|",".",".","|",".",".",".","|",".",".","|",".",".",".",3,"|",".","|","."],[".",".","|",".",".","|",5,".","|",5,".",3,"|",5,".","|",5,".",3,"|",5,".","|",5,5,".",".","|",5,"|",5],[".",".","|",".",".","|",".",5,"|",".",5,".","|",".",5,"|",".",5,".","|",".",5,"|",".",".",5,".","|",".","|","."],[".",".","|",".",".","|",".",".","|",".",".",".","|",".",".","|",".",".",".","|",".",".","|",".",".",".",".","|",".","|","."]]],"numberofstrings":4,"notes":["G","D","A","E"],"capo":0,"stringnotes":["G2","D2","A1","E1"],"comments":["iNTRO","VS 1","VS 1","cHORUS","CHORUS *Last Chorus go to CODA","CHORUS BACK TO VERSE after 2nd X go to solo","SOLO","SOLO to Chorus","CODA"],"timing":[["W",null,null,"W",null,null,null,"W","W",null,"W","W",null,"W","W","W",null,"W","W","W","W","W","W","W"],["W","W",null,"W","W","W",null,"W","W",null,"W","W","W",null,"W","W",null,"W","W","W",null,"W","W",null,"W","W",null,"W","W",null,"W","W","W",null,"W","W",null,"W","W","W","W"],["W","W",null,"W","W","W",null,"W","W",null,"W","W","W",null,"W","W",null,"W","W","W",null,"W","W",null,"W","W","W","W",null,"W","W",null,"W","W","W",null,"W",null,null,"W","W"],["W","W",null,"W","W","W",null,"W","W",null,"W","W","W",null,"W","W",null,"W","W","W",null,"W","W","W","W","W","W","W","W","W",null,"W","W",null,"W","W","W",null,"W","W"],["W","W","W","W",null,"W","W",null,"W","W","W",null,"W","W",null,"W","W","W",null,"W","W",null,"W","W","W",null,"W","W",null,"W","W","W","W",null,"W",null,null,"W","W"],["W","W",null,"W","W",null,"W","W","W",null,"W","W",null,"W","W","W","W"],["W","W","W","W",null,"W","W","W",null,"W","W","W",null,"W","W","W","W",null,"W","W","W","W",null,"W","W",null,"W","W","W","W",null,"W","W"],["W","W","W",null,"W","W","W",null,"W","W","W","W","W","W","W","W","W",null,"W","W","W","W"],["W","W",null,"W","W",null,"W","W",null,"W","W","W",null,"W","W",null,"W","W","W",null,"W","W",null,"W","W","W","W",null,"W",null,"W"]],"timingvisible":false,"tabcounter":31,"stave":8,"totalstaves":9,"instrument":"4bass","selectedtuning":"4bass","version":"13"}

Member for

3 years 9 months
Submitted by lancegragg on Fri, 2020-10-16 09:57