Real World

01234567891011121314151617181920212223
E
B
G
D
A
E
B
0 1 2 3 4 5 6 7 8 9 10 11 12 13 14 15 16 17 18 19 20 21 22 23
(/) Slide Up  (\) Slide Down  (h) Hammer On  (p) Pull Off  (b) Bend (r) Release (v) Vibrato

Intro

G|-----------------|-----------------|-----------------|-----------------
D|--1--------3-----|--1--------3-----|--1--------3-----|--1-----3--0-----
A|--------3--------|--------3--------|--------3--------|--------------3--
E|--------------1--|--------------1--|--------------1--|-----------------

Verse 1

G|--------------|--------------|--------|--------------|-----------------
D|--------------|--------3--3--|--------|--------------|--------3--0-----
A|--1-----------|--------------|--------|--1-----------|--------------1--
E|--------1--1--|--3-----------|--4--x--|--------1--1--|--3--------------

Main Riff

G|-----------------|--------|-----------------
D|--1--------3-----|--------|--1-----3--0-----
A|--------3-----1--|--------|--------------3--
E|-----------------|--3--x--|-----------------

verse 2

G|--------------|--------------|--------|-----------------
D|--------------|--------3--3--|--------|--------1--3-----
A|--1-----------|--------------|--------|--------------0--
E|--------1--1--|--3-----------|--6--x--|--3--------------

Main riff

G|-----------------|-----------------|--------------
D|--1--------3-----|--1--------3-----|--1--3--0-----
A|--------3-----1--|--------3-----1--|-----------3--
E|-----------------|-----------------|--------------

Chorus

G|--------------------|-----------------------|--------------0-----|--------|-----------------------|--------
D|-----------0--1--3--|--------3--------------|-----------0-----3--|--------|-----3--3-----3--5-----|--------
A|--1--1--------------|--3-----------------3--|--1--1--------------|--------|--------------------3--|--------
E|--------------------|--------------1--3-----|--------------------|--3--3--|--3--------------------|--2--x--

Main Riff

G|-----------------|-----------------|-----------------|--------------------------
D|--1--------3-----|--1--------3-----|--1-----3--0-----|--1-----3-----0-----1--3--
A|--------3-----1--|--------3-----1--|--------------3--|-----------------1--------
E|-----------------|-----------------|-----------------|--------------------------

Solo 2

G|--------------|--------------------|--------------|--------------------
D|--------------|-----------1--3-----|--------------|-----------1--3-----
A|--1-----------|-----------------3--|--------------|-----------------3--
E|--------1--1--|--3--3--------------|--1-----1--1--|--3--3--------------

verse 3

G|--------------|--------------|--------|--------------|-----------------
D|--------------|--------1--3--|--------|--------------|--------3--0-----
A|--1-----------|--------------|--------|--1-----------|--------------1--
E|--------1--1--|--3-----------|--5--x--|--------1--1--|--3--------------

Main Riff

G|-----------------|-----------------|-----------------|--------------------------
D|--1--------3-----|--1--------3-----|--1-----3--0-----|--1-----3-----0-----1--3--
A|--------3-----1--|--------3-----1--|--------------3--|-----------------1--------
E|-----------------|-----------------|-----------------|--------------------------

Chorus 2

G|--------------------|-----------------------|--------------0-----|-----------------------|--
D|-----------0--1--3--|--------3--------------|-----------0-----3--|-----3--3-----3--5-----|--
A|--1--1--------------|--3-----------------3--|--1--1--------------|--3-----------------3--|--
E|--------------------|--------------1--3-----|--------------------|-----------------------|--

Chorus 2

G|--------------------|-----------------------|--------------0-----|--------------------|--0--0--0--------------
D|-----------0--1--3--|--------3--------------|-----------0-----3--|--3-----1--0--1--3--|--------------0--------
A|--1--1--------------|--3-----------------3--|--1--1--------------|--------------------|-----------------3--1--
E|--------------------|--------------1--3-----|--------------------|--------------------|-----------------------

Verse 4

G|-----------------------|--------------------------|-----------------------|--0-----0--------------|--------------------
D|-----------------1--3--|--------------------------|--------0-----1-----3--|--------------0--------|--------------0--3--
A|--1-----1-----3--------|--------------------3--1--|--1--------------------|-----------------3--1--|--1-----1--3--------
E|-----------------------|--3-----3-----3--1--------|-----------------------|-----------------------|--------------------

Main Riff

G|-----------------|-----------------|-----------------|--------------7--5--3-----5--
D|--1--------3-----|--1--------3-----|--1-----3--0-----|--1-----3--------------------
A|--------3-----1--|--------3-----1--|--------------3--|-----------------------------
E|-----------------|-----------------|-----------------|-----------------------------

Solo 2

G|--------------|-----------------------|--------------|-----------------|-----------------|--------|--------------------------
D|--------------|--------------1--3-----|--------------|--------3--0-----|--1--------3--1--|--------|--1-----3-----0-----1--3--
A|--1-----------|--------------------0--|--1-----------|--------------1--|--------3--------|--------|-----------------1--------
E|--------1--1--|--3-----3--------------|--------1--1--|--3--------------|-----------------|--3--x--|--------------------------

Chorus 3

G|--------------------|-----------------------|-----------0-----|-----------------------|--------------------|-----------------------
D|-----------0--1--3--|--------3--------------|--------0-----3--|--------3-----3--5-----|-----------0--1--3--|--------3--------------
A|--1--1--------------|--3-----------------3--|--1--------------|--3-----------------3--|--1--1--------------|--3-----------------3--
E|--------------------|--------------1--3-----|-----------------|-----------------------|--------------------|--------------1--3-----

Chorus 3

G|--------------0-----|--------------------|--------------0-----|-----------------------|--------------0-----
D|-----------0-----3--|--1-----0--------3--|-----------0-----3--|--1-----0--------1--3--|-----------0-----3--
A|--1--1--------------|--------------3-----|--1--1--------------|--------------3--------|--1--1--------------
E|--------------------|--------------------|--------------------|-----------------------|--------------------

Chorus 3

G|-----------------------|-----------------|-----------------|--------------------------
D|--1-----0--------------|--1--------3-----|--1--------3-----|--1-----0--1-----------1--
A|--------------3--0--1--|--------3-----1--|--------3-----1--|-----------------3--------
E|-----------------------|-----------------|-----------------|--------------------------

							http://www.guitartabcreator.com
Chords

Instruments
{"strings":[[[".","_",".",".",".","|",".","_",".",".",".","|",".","_",".",".",".","|",".","_",".",".","."],[1,"_",".",3,".","|",1,"_",".",3,".","|",1,"_",".",3,".","|",1,"_",3,0,"."],[".","_",3,".",".","|",".","_",3,".",".","|",".","_",3,".",".","|",".","_",".",".",3],[".","_",".",".",1,"|",".","_",".",".",1,"|",".","_",".",".",1,"|",".","_",".",".","."]],[[".","_",".",".","|",".","_",".",".","|",".",".","|",".","_",".",".","|",".","_",".",".","."],[".","_",".",".","|",".","_",3,3,"|",".",".","|",".","_",".",".","|",".","_",3,0,"."],[1,"_",".",".","|",".","_",".",".","|",".",".","|",1,"_",".",".","|",".","_",".",".",1],[".","_",1,1,"|",3,"_",".",".","|",4,"x","|",".","_",1,1,"|",3,"_",".",".","."]],[[".","_",".",".",".","|",".",".","|",".","_",".",".","."],[1,"_",".",3,".","|",".",".","|",1,"_",3,0,"."],[".","_",3,".",1,"|",".",".","|",".","_",".",".",3],[".","_",".",".",".","|",3,"x","|",".","_",".",".","."]],[[".","_",".",".","|",".","_",".",".","|",".",".","|",".","_",".",".","."],[".","_",".",".","|",".","_",3,3,"|",".",".","|",".","_",1,3,"."],[1,"_",".",".","|",".","_",".",".","|",".",".","|",".","_",".",".",0],[".","_",1,1,"|",3,"_",".",".","|",6,"x","|",3,"_",".",".","."]],[[".","_",".",".",".","|",".","_",".",".",".","|",".",".",".","."],[1,"_",".",3,".","|",1,"_",".",3,".","|",1,3,0,"."],[".","_",3,".",1,"|",".","_",3,".",1,"|",".",".",".",3],[".","_",".",".",".","|",".","_",".",".",".","|",".",".",".","."]],[[".",".","_",".",".",".","|",".","_",".","_",".",".",".","|",".",".","_",".",0,".","|",".",".","|",".",".",".","_",".",".",".","|",".","."],[".",".","_",0,1,3,"|",".","_",3,"_",".",".",".","|",".",".","_",0,".",3,"|",".",".","|",".",3,3,"_",3,5,".","|",".","."],[1,1,"_",".",".",".","|",3,"_",".","_",".",".",3,"|",1,1,"_",".",".",".","|",".",".","|",".",".",".","_",".",".",3,"|",".","."],[".",".","_",".",".",".","|",".","_",".","_",1,3,".","|",".",".","_",".",".",".","|",3,3,"|",3,".",".","_",".",".",".","|",2,"x"]],[[".","_",".",".",".","|",".","_",".",".",".","|",".","_",".",".",".","|",".","_",".","_",".",".",".","."],[1,"_",".",3,".","|",1,"_",".",3,".","|",1,"_",3,0,".","|",1,"_",3,"_",0,".",1,3],[".","_",3,".",1,"|",".","_",3,".",1,"|",".","_",".",".",3,"|",".","_",".","_",".",1,".","."],[".","_",".",".",".","|",".","_",".",".",".","|",".","_",".",".",".","|",".","_",".","_",".",".",".","."]],[[".","_",".",".","|",".",".","_",".",".",".","|",".","_",".",".","|",".",".","_",".",".","."],[".","_",".",".","|",".",".","_",1,3,".","|",".","_",".",".","|",".",".","_",1,3,"."],[1,"_",".",".","|",".",".","_",".",".",3,"|",".","_",".",".","|",".",".","_",".",".",3],[".","_",1,1,"|",3,3,"_",".",".",".","|",1,"_",1,1,"|",3,3,"_",".",".","."]],[[".","_",".",".","|",".","_",".",".","|",".",".","|",".","_",".",".","|",".","_",".",".","."],[".","_",".",".","|",".","_",1,3,"|",".",".","|",".","_",".",".","|",".","_",3,0,"."],[1,"_",".",".","|",".","_",".",".","|",".",".","|",1,"_",".",".","|",".","_",".",".",1],[".","_",1,1,"|",3,"_",".",".","|",5,"x","|",".","_",1,1,"|",3,"_",".",".","."]],[[".","_",".",".",".","|",".","_",".",".",".","|",".","_",".",".",".","|",".","_",".","_",".",".",".","."],[1,"_",".",3,".","|",1,"_",".",3,".","|",1,"_",3,0,".","|",1,"_",3,"_",0,".",1,3],[".","_",3,".",1,"|",".","_",3,".",1,"|",".","_",".",".",3,"|",".","_",".","_",".",1,".","."],[".","_",".",".",".","|",".","_",".",".",".","|",".","_",".",".",".","|",".","_",".","_",".",".",".","."]],[[".",".","_",".",".",".","|",".","_",".","_",".",".",".","|",".",".","_",".",0,".","|",".",".",".","_",".",".",".","|"],[".",".","_",0,1,3,"|",".","_",3,"_",".",".",".","|",".",".","_",0,".",3,"|",".",3,3,"_",3,5,".","|"],[1,1,"_",".",".",".","|",3,"_",".","_",".",".",3,"|",1,1,"_",".",".",".","|",3,".",".","_",".",".",3,"|"],[".",".","_",".",".",".","|",".","_",".","_",1,3,".","|",".",".","_",".",".",".","|",".",".",".","_",".",".",".","|"]],[[".",".","_",".",".",".","|",".","_",".","_",".",".",".","|",".",".","_",".",0,".","|",".","_",".",".",".",".","|",0,0,0,"_",".",".","."],[".",".","_",0,1,3,"|",".","_",3,"_",".",".",".","|",".",".","_",0,".",3,"|",3,"_",1,0,1,3,"|",".",".",".","_",0,".","."],[1,1,"_",".",".",".","|",3,"_",".","_",".",".",3,"|",1,1,"_",".",".",".","|",".","_",".",".",".",".","|",".",".",".","_",".",3,1],[".",".","_",".",".",".","|",".","_",".","_",1,3,".","|",".",".","_",".",".",".","|",".","_",".",".",".",".","|",".",".",".","_",".",".","."]],[[".","_",".","_",".",".",".","|",".","_",".","_",".",".",".",".","|",".","_",".","_",".","_",".","|",0,"_",0,"_",".",".",".","|",".","_",".",".",".","."],[".","_",".","_",".",1,3,"|",".","_",".","_",".",".",".",".","|",".","_",0,"_",1,"_",3,"|",".","_",".","_",0,".",".","|",".","_",".",".",0,3],[1,"_",1,"_",3,".",".","|",".","_",".","_",".",".",3,1,"|",1,"_",".","_",".","_",".","|",".","_",".","_",".",3,1,"|",1,"_",1,3,".","."],[".","_",".","_",".",".",".","|",3,"_",3,"_",3,1,".",".","|",".","_",".","_",".","_",".","|",".","_",".","_",".",".",".","|",".","_",".",".",".","."]],[[".","_",".",".",".","|",".","_",".",".",".","|",".","_",".",".",".","|",".","_",".","_",7,5,3,"_",5],[1,"_",".",3,".","|",1,"_",".",3,".","|",1,"_",3,0,".","|",1,"_",3,"_",".",".",".","_","."],[".","_",3,".",1,"|",".","_",3,".",1,"|",".","_",".",".",3,"|",".","_",".","_",".",".",".","_","."],[".","_",".",".",".","|",".","_",".",".",".","|",".","_",".",".",".","|",".","_",".","_",".",".",".","_","."]],[[".","_",".",".","|",".","_",".","_",".",".",".","|",".","_",".",".","|",".","_",".",".",".","|",".","_",".",".",".","|",".","_","|",".","_",".","_",".",".",".","."],[".","_",".",".","|",".","_",".","_",1,3,".","|",".","_",".",".","|",".","_",3,0,".","|",1,"_",".",3,1,"|",".","_","|",1,"_",3,"_",0,".",1,3],[1,"_",".",".","|",".","_",".","_",".",".",0,"|",1,"_",".",".","|",".","_",".",".",1,"|",".","_",3,".",".","|",".","_","|",".","_",".","_",".",1,".","."],[".","_",1,1,"|",3,"_",3,"_",".",".",".","|",".","_",1,1,"|",3,"_",".",".",".","|",".","_",".",".",".","|",3,"x","|",".","_",".","_",".",".",".","."]],[[".",".","_",".",".",".","|",".","_",".","_",".",".",".","|",".","_",".",0,".","|",".","_",".","_",".",".",".","|",".",".","_",".",".",".","|",".","_",".","_",".",".","."],[".",".","_",0,1,3,"|",".","_",3,"_",".",".",".","|",".","_",0,".",3,"|",".","_",3,"_",3,5,".","|",".",".","_",0,1,3,"|",".","_",3,"_",".",".","."],[1,1,"_",".",".",".","|",3,"_",".","_",".",".",3,"|",1,"_",".",".",".","|",3,"_",".","_",".",".",3,"|",1,1,"_",".",".",".","|",3,"_",".","_",".",".",3],[".",".","_",".",".",".","|",".","_",".","_",1,3,".","|",".","_",".",".",".","|",".","_",".","_",".",".",".","|",".",".","_",".",".",".","|",".","_",".","_",1,3,"."]],[[".",".","_",".",0,".","|",".","_",".","_",".",".","|",".",".","_",".",0,".","|",".","_",".","_",".",".",".","|",".",".","_",".",0,"."],[".",".","_",0,".",3,"|",1,"_",0,"_",".",3,"|",".",".","_",0,".",3,"|",1,"_",0,"_",".",1,3,"|",".",".","_",0,".",3],[1,1,"_",".",".",".","|",".","_",".","_",3,".","|",1,1,"_",".",".",".","|",".","_",".","_",3,".",".","|",1,1,"_",".",".","."],[".",".","_",".",".",".","|",".","_",".","_",".",".","|",".",".","_",".",".",".","|",".","_",".","_",".",".",".","|",".",".","_",".",".","."]],[[".","_",".","_",".",".",".","|",".","_",".",".",".","|",".","_",".",".",".","|",".","_",".",".","_",".","_","."],[1,"_",0,"_",".",".",".","|",1,"_",".",3,".","|",1,"_",".",3,".","|",1,"_",0,1,"_",".","_",1],[".","_",".","_",3,0,1,"|",".","_",3,".",1,"|",".","_",3,".",1,"|",".","_",".",".","_",3,"_","."],[".","_",".","_",".",".",".","|",".","_",".",".",".","|",".","_",".",".",".","|",".","_",".",".","_",".","_","."]]],"numberofstrings":4,"notes":["G","D","A","E"],"capo":0,"stringnotes":["G2","D2","A1","E1"],"comments":["Intro","Verse 1","Main Riff","verse 2","Main riff","Chorus","Main Riff","Solo 2","verse 3","Main Riff","Chorus 2","Chorus 2","Verse 4","Main Riff","Solo 2","Chorus 3","Chorus 3","Chorus 3"],"timing":[["W",null,"W","W","W",null,"W",null,"W","W","W",null,"W",null,"W","W","W",null,"W",null,"W","W","W"],["W",null,"W","W",null,"W",null,"W","W",null,"W","W","W","W",null,"W","W",null,"W",null,"W","W","W"],["W",null,"W","W","W",null,"W","W",null,"W",null,"W","W","W"],["W",null,"W","W",null,"W",null,"W","W",null,null,"W",null,"W","W","W","W","W"],["W",null,"W","W","W",null,"W",null,"W","W","W",null,"W","W","W","W"],["W","W",null,"W","W","W",null,"W","W","W",null,"W","W","W",null,"W","W",null,"W","W","W",null,"W","W",null,"W","W","W",null,"W","W","W",null,null,"W"],["W",null,"W","W","W",null,"W",null,"W","W","W",null,"W",null,"W","W","W",null,"W",null,"W",null,"W","W","W","W"],["W",null,"W","W",null,"W","W",null,"W","W","W",null,"W",null,"W","W",null,"W","W",null,"W","W","W"],["W",null,"W","W",null,"W",null,"W","W",null,null,"W",null,"W",null,"W","W",null,"W",null,"W","W","W",null,"W"],["W",null,"W","W","W",null,"W",null,"W","W","W",null,"W",null,"W","W","W",null,"W",null,"W",null,"W","W","W","W"],["W","W",null,"W","W","W",null,"W",null,"W",null,"W","W","W",null,"W","W",null,"W","W","W",null,"W","W","W",null,"W","W","W"],["W","W",null,"W","W","W",null,"W",null,"W",null,"W","W","W",null,"W","W",null,"W","W","W",null,"W",null,"W","W","W","W",null,"W","W","W",null,"W","W","W"],["W",null,"W",null,"W","W","W",null,"W",null,"W",null,"W","W","W","W",null,"W",null,"W",null,"W",null,"W",null,"W",null,"W",null,"W","W","W",null,"W",null,"W","W","W","W"],["W",null,"W","W","W",null,"W",null,"W","W","W",null,"W",null,"W","W","W",null,"W",null,"W",null,"W","W","W","W","W"],["W",null,"W","W",null,"W",null,"W",null,"W","W","W",null,"W",null,"W","W",null,"W",null,"W","W","W",null,"W",null,"W","W","W",null,null,"W","W","W",null,"W","W","W","W","W","W"],["W","W",null,"W","W","W",null,"W",null,"W",null,"W","W","W",null,"W",null,"W","W","W",null,"W",null,"W",null,"W","W","W",null,"W","W",null,"W","W","W",null,"W",null,"W",null,"W","W","W"],["W","W",null,"W","W","W",null,"W",null,"W",null,"W","W",null,"W","W",null,"W","W","W",null,"W",null,"W",null,"W","W","W",null,"W","W",null,"W","W","W"],["W",null,"W",null,"W","W","W",null,"W",null,"W","W","W",null,"W",null,"W","W","W",null,"W",null,"W","W",null,"W",null,"W"]],"timingvisible":false,"tabcounter":28,"stave":17,"totalstaves":18,"instrument":"4bass","selectedtuning":"4bass","version":"13"}

Member for

4 years
Submitted by lancegragg on Sat, 2020-11-14 05:33