OUR GOD

Chords

01234567891011121314151617181920212223
E
B
G
D
A
E
B
0 1 2 3 4 5 6 7 8 9 10 11 12 13 14 15 16 17 18 19 20 21 22 23
(/) Slide Up  (\) Slide Down  (h) Hammer On  (p) Pull Off  (b) Bend (r) Release (v) Vibrato

(W|WW) Whole  (H|HH) Half  (Q|QQ) Quarter  (E|EE) 8th (S|SS) 16th  (T|TT) 32nd (X|XX) 64th

Stave 1:
t:  H  H     W     H  H     W     W     W     W     W  
G|--------|-----|--------|-----|-----|-----|-----|-----
D|--------|-----|--------|-----|-----|-----|-----|-----
A|--------|--2--|--------|--2--|--4--|--4--|-----|-----
E|--4--0--|-----|--4--0--|-----|-----|-----|--2--|--2--

Stave 2:
t:  W     W     W     W     W     W     W     W  
G|-----|-----|-----|-----|-----|-----|-----|-----
D|-----|-----|-----|-----|-----|-----|-----|-----
A|-----|-----|--2--|--1--|-----|-----|--2--|-----
E|--4--|--0--|-----|-----|--4--|--0--|-----|--2--

Stave 3:
t:  E  H     E  H     E  H     E  H     E  Q  E  Q     W     E  Q  E  Q     W  
G|--------|--------|--------|--------|--------------|-----|--------------|-----
D|--------|--------|--------|--------|--------------|-----|--------------|-----
A|--------|--------|--2--2--|--------|--------------|--2--|--------------|--2--
E|--4--4--|--0--0--|--------|--2--2--|--4--4--0--0--|-----|--4--4--0--0--|-----

Stave 4:
t:  E  H     W     E  H     W     
G|--------|-----|--------|-----|--
D|--------|-----|--------|-----|--
A|--------|-----|--------|-----|--
E|--4--4--|--4--|--2--2--|--2--|--

							http://www.guitartabcreator.com
Instruments
{"title":"OUR GOD","strings":[[[".",".","|",".","|",".",".","|",".","|",".","|",".","|",".","|","."],[".",".","|",".","|",".",".","|",".","|",".","|",".","|",".","|","."],[".",".","|",2,"|",".",".","|",2,"|",4,"|",4,"|",".","|","."],[4,0,"|",".","|",4,0,"|",".","|",".","|",".","|",2,"|",2]],[[".","|",".","|",".","|",".","|",".","|",".","|",".","|","."],[".","|",".","|",".","|",".","|",".","|",".","|",".","|","."],[".","|",".","|",2,"|",1,"|",".","|",".","|",2,"|","."],[4,"|",0,"|",".","|",".","|",4,"|",0,"|",".","|",2]],[[".",".","|",".",".","|",".",".","|",".",".","|",".",".",".",".","|",".","|",".",".",".",".","|","."],[".",".","|",".",".","|",".",".","|",".",".","|",".",".",".",".","|",".","|",".",".",".",".","|","."],[".",".","|",".",".","|",2,2,"|",".",".","|",".",".",".",".","|",2,"|",".",".",".",".","|",2],[4,4,"|",0,0,"|",".",".","|",2,2,"|",4,4,0,0,"|",".","|",4,4,0,0,"|","."]],[[".",".","|",".","|",".",".","|",".","|"],[".",".","|",".","|",".",".","|",".","|"],[".",".","|",".","|",".",".","|",".","|"],[4,4,"|",4,"|",2,2,"|",2,"|"]]],"numberofstrings":4,"notes":["G","D","A","E"],"capo":0,"stringnotes":["G2","D2","A1","E1"],"timing":[["H","H",null,"W",null,"H","H",null,"W",null,"W",null,"W",null,"W",null,"W"],["W",null,"W",null,"W",null,"W",null,"W",null,"W",null,"W",null,"W"],["E","H",null,"E","H",null,"E","H",null,"E","H",null,"E","Q","E","Q",null,"W",null,"E","Q","E","Q",null,"W"],["E","H",null,"W",null,"E","H",null,"W"]],"timingvisible":true,"tabcounter":10,"stave":3,"totalstaves":4,"instrument":"4bass","selectedtuning":"4bass_standard","version":"13"}

Member for

3 years 10 months
Submitted by lancegragg on Sat, 2017-01-21 05:22