Sound will begin in 5 seconds

MY VICTORY

01234567891011121314151617181920212223
E
B
G
D
A
E
B
0 1 2 3 4 5 6 7 8 9 10 11 12 13 14 15 16 17 18 19 20 21 22 23
(/) Slide Up  (\) Slide Down  (h) Hammer On  (p) Pull Off  (b) Bend (r) Release (v) Vibrato

Stave 1:

G|-------|----------------|--
D|-------|----------------|--
A|--6/7--|-------------2--|--
E|-------|--2/4-----------|--

Stave 2:

G|-----|-----|-----|-----|-----|--------------|-----|-----|-----|-----|-----|-----|--
D|-----|-----|-----|-----|-----|--------------|-----|-----|-----|-----|-----|-----|--
A|-----|-----|-----|-----|-----|-----------2--|-----|-----|-----|-----|-----|-----|--
E|--0--|--4--|--0--|--4--|--0--|--4-----------|--0--|--4--|--0--|--4--|--0--|--2--|--

Stave 3:

G|--------------|--------------|--------------|--------------|--------------|-----|-----|-----|-----
D|--------------|--------------|--------------|--------------|--------------|-----|-----|-----|-----
A|--2--2--2--2--|--------------|--2--2--2--2--|--------------|-----------2--|-----|--6--|-----|-----
E|--------------|--0--0--0--0--|--------------|--0--0--0--0--|--4-----------|--0--|-----|--0--|--2--

Stave 4:

G|--------------|--------------|--------------|--------------|--
D|--------------|--------------|--------------|--------------|--
A|--------------|-----------2--|--------------|-----------2--|--
E|--0--0--0--0--|--4--4--4-----|--0--0--0--0--|--4--4--4-----|--

Stave 5:

G|-----|-----|-----|-----|-----|-----|-----|--
D|-----|-----|-----|-----|-----|-----|-----|--
A|-----|-----|-----|-----|-----|-----|-----|--
E|--0--|--4--|--0--|--4--|--0--|--4--|--2--|--

Stave 6:

G|--
D|--
A|--
E|--

Stave 7:

G|--------------|--------------|--------------|--------------|--------------|--------------|--------------
D|--------------|--------------|--------------|--------------|--------------|--------------|--------------
A|--------------|--------------|--6--6--6--6--|--------------|--------------|--------------|--6--6--6--6--
E|--4--4--4--4--|--0--0--0--0--|--------------|--2--2--2--2--|--4--4--4--4--|--0--0--0--0--|--------------

Stave 8:

G|--------------
D|--------------
A|--------------
E|--2--2--2--2--

Stave 9:

G|--------------|--------------|--------------|--------------|--------------|--------------|--------------
D|--------------|--------------|--------------|--------------|--------------|--------------|--------------
A|--2--2--2--2--|--------------|--2--2--2--2--|--------------|--------------|--2--2--2--2--|--------------
E|--------------|--0--0--0--0--|--------------|--0--0--0--0--|--4--4--4--4--|--------------|--0--0--0--0--

Stave 10:

G|--------------|--------------|--------------|-----|--
D|--------------|--------------|--------------|-----|--
A|--6--6--6--6--|--------------|--------------|-----|--
E|--------------|--0--0--0--0--|--2--2--2--2--|--4--|--

Stave 11:

G|-----|-----|-----
D|-----|-----|-----
A|--6--|-----|-----
E|-----|--0--|--2--

Stave 12:

G|-------|-------------------|-------|-----
D|-------|-------------------|-------|-----
A|--6/7--|----------------2--|--6/7--|--2--
E|-------|--2/4--------------|-------|-----

http://www.guitartabcreator.com
Guitar Tab Creator is intended to store guitar tab created through the tool. It currently does not support in-line text editing. Any text you place in here will be lost. If you need to comment on your tab, please use the "Tab Notes" section located below.