IRIS

Chords

01234567891011121314151617181920212223
E
B
G
D
A
E
B
0 1 2 3 4 5 6 7 8 9 10 11 12 13 14 15 16 17 18 19 20 21 22 23
(/) Slide Up  (\) Slide Down  (h) Hammer On  (p) Pull Off  (b) Bend (r) Release (v) Vibrato

1st and 2nd verse

G|--------------|--------|--
D|--0--2--------|--------|--
A|--------------|--------|--
E|--------3--3--|--4--x--|--

Chorus 4X

G|--------------------------------------|--
D|--2--2--2--0--0--0--------------------|--
A|--------------------------------------|--
E|--------------------3--3--3--3--3--3--|--

Interlude 1              to  vs3 4x Chorus 4x    Interlude 2

G|--------------------------|--------------------------|--------------------------|-----------|--
D|--------------------------|--------------------------|--------------------------|-----------|--
A|--2--2--2--0--0--0--2--2--|--------------------------|--2--2--2--0--0--0--2--2--|-----------|--
E|--------------------------|--3--3--3--2--2--3--2--0--|--------------------------|--3--3--3--|--

Interlude 2   2X

G|--------------------------------------|--------------------------------------|--
D|--------------------------------------|--------------------------------------|--
A|--2--2--2--4--4--4--5--5--5--5--5--5--|--2--2--2--0--0--0--------------------|--
E|--------------------------------------|--------------------3--3--3--3--3--3--|--

							http://www.guitartabcreator.com
Instruments
{"strings":[[[".",".",".",".","|",".",".","|"],[0,2,".",".","|",".",".","|"],[".",".",".",".","|",".",".","|"],[".",".",3,3,"|",4,"x","|"]],[[".",".",".",".",".",".",".",".",".",".",".",".","|"],[2,2,2,0,0,0,".",".",".",".",".",".","|"],[".",".",".",".",".",".",".",".",".",".",".",".","|"],[".",".",".",".",".",".",3,3,3,3,3,3,"|"]],[[".",".",".",".",".",".",".",".","|",".",".",".",".",".",".",".",".","|",".",".",".",".",".",".",".",".","|",".",".",".","|"],[".",".",".",".",".",".",".",".","|",".",".",".",".",".",".",".",".","|",".",".",".",".",".",".",".",".","|",".",".",".","|"],[2,2,2,0,0,0,2,2,"|",".",".",".",".",".",".",".",".","|",2,2,2,0,0,0,2,2,"|",".",".",".","|"],[".",".",".",".",".",".",".",".","|",3,3,3,2,2,3,2,0,"|",".",".",".",".",".",".",".",".","|",3,3,3,"|"]],[[".",".",".",".",".",".",".",".",".",".",".",".","|",".",".",".",".",".",".",".",".",".",".",".",".","|"],[".",".",".",".",".",".",".",".",".",".",".",".","|",".",".",".",".",".",".",".",".",".",".",".",".","|"],[2,2,2,4,4,4,5,5,5,5,5,5,"|",2,2,2,0,0,0,".",".",".",".",".",".","|"],[".",".",".",".",".",".",".",".",".",".",".",".","|",".",".",".",".",".",".",3,3,3,3,3,3,"|"]]],"numberofstrings":4,"notes":["G","D","A","E"],"capo":0,"stringnotes":["G2","D2","A1","E1"],"comments":["1st and 2nd verse","Chorus 4X","Interlude 1 to vs3 4x Chorus 4x Interlude 2","Interlude 2 2X"],"timing":[["Q","Q","Q","Q",null,null,"Q"],["Q","E","E","E","E","E","E","E","E","E","E","E"],["E","E","E","E","E","E","E","E","E","E","E","E","E","E","E","E","E","E","E","E","E","E","E","E","E","E","E","E","E","E"],["E","E","E","E","E","E","E","E","E","E","E","E",null,"E","E","E","E","E","E","E","E","E","E","E","E"]],"timingvisible":false,"tabcounter":26,"stave":3,"totalstaves":4,"instrument":"4bass","selectedtuning":"4bass","version":"13"}

Member for

3 years 9 months
Submitted by lancegragg on Fri, 2020-10-16 07:21