Home

Chords

01234567891011121314151617181920212223
E
B
G
D
A
E
B
0 1 2 3 4 5 6 7 8 9 10 11 12 13 14 15 16 17 18 19 20 21 22 23
(/) Slide Up  (\) Slide Down  (h) Hammer On  (p) Pull Off  (b) Bend (r) Release (v) Vibrato

Stave 1:

G|-------------|---------|-----------------|-----
D|-10-9-7----7-|---------|-----------------|-----
A|--------10---|-8-7-5-5-|-3-3-3-3-3-3-3-3-|-4-x-
E|-------------|---------|-----------------|-----

Stave 2:

G|-----------------|-----------------|-----------------|---------------------------|-
D|-----------------|-----------------|-----------------|-10-9-7----7-7-7-7---------|-
A|-3-3-3-3-3-3-3---|-----------------|-3-3-3-3---------|--------10---------8-7-5-5-|-
E|---------------3-|-5-5-5-5-1-1-1-1-|---------3-3-3-3-|---------------------------|-

Stave 3:

G|-----------------------------|-----------------------------------------------------
D|-----------------------------|-----------------------------------------------------
A|-8-8-8-8-------7-12-12-12-12-|-10-10-10----8-8-8-8---------10-10-10-10-10-10-10-10-
E|---------8-8-8---------------|----------12---------8-8-8-8-------------------------

							http://www.guitartabcreator.com
Instruments
{"strings":[[[".",".",".",".",".","|",".",".",".",".","|",".",".",".",".",".",".",".",".","|",".","."],[10,9,7,".",7,"|",".",".",".",".","|",".",".",".",".",".",".",".",".","|",".","."],[".",".",".",10,".","|",8,7,5,5,"|",3,3,3,3,3,3,3,3,"|",4,"x"],[".",".",".",".",".","|",".",".",".",".","|",".",".",".",".",".",".",".",".","|",".","."]],[[".",".",".",".",".",".",".",".","|",".",".",".",".",".",".",".",".","|",".",".",".",".",".",".",".",".","|",".",".",".",".",".",".",".",".",".",".",".",".","|"],[".",".",".",".",".",".",".",".","|",".",".",".",".",".",".",".",".","|",".",".",".",".",".",".",".",".","|",10,9,7,".",7,7,7,7,".",".",".",".","|"],[3,3,3,3,3,3,3,".","|",".",".",".",".",".",".",".",".","|",3,3,3,3,".",".",".",".","|",".",".",".",10,".",".",".",".",8,7,5,5,"|"],[".",".",".",".",".",".",".",3,"|",5,5,5,5,1,1,1,1,"|",".",".",".",".",3,3,3,3,"|",".",".",".",".",".",".",".",".",".",".",".",".","|"]],[[".",".",".",".",".",".",".",".",".",".",".",".","|",".",".",".",".",".",".",".",".",".",".",".",".",".",".",".",".",".",".",".","."],[".",".",".",".",".",".",".",".",".",".",".",".","|",".",".",".",".",".",".",".",".",".",".",".",".",".",".",".",".",".",".",".","."],[8,8,8,8,".",".",".",7,12,12,12,12,"|",10,10,10,".",8,8,8,8,".",".",".",".",10,10,10,10,10,10,10,10],[".",".",".",".",8,8,8,".",".",".",".",".","|",".",".",".",12,".",".",".",".",8,8,8,8,".",".",".",".",".",".",".","."]]],"numberofstrings":4,"notes":["G","D","A","E"],"capo":0,"stringnotes":["G2","D2","A1","E1"],"comments":["Stave 1:","Stave 2:","Stave 3:"],"timing":[["W","W","W","W","W",null,"W","W","W","W",null,"W","W","W","W","W","W","W","W",null,null,"W"],["W","W","W","W","W","W","W","W",null,"W","W","W","W","W","W","W","W",null,"W","W","W","W","W","W","W","W",null,"W","W","W","W","W","W","W","W","W","W","W","W"],["W","W","W","W","W","W","W","W","W","W","W","W",null,"W","W","W","W","W","W","W","W","W","W","W","W","W","W","W","W","W","W","W","W"]],"timingvisible":false,"tabcounter":33,"stave":2,"totalstaves":3,"instrument":"4bass","selectedtuning":"4bass","version":"13"}

Member for

3 years 9 months
Submitted by lancegragg on Thu, 2020-10-15 10:23