Fishin in the Dark

Chords

01234567891011121314151617181920212223
E
B
G
D
A
E
B
0 1 2 3 4 5 6 7 8 9 10 11 12 13 14 15 16 17 18 19 20 21 22 23
(/) Slide Up  (\) Slide Down  (h) Hammer On  (p) Pull Off  (b) Bend (r) Release (v) Vibrato

1st Chorus

G|--------------|--------------|--------------|--------------|--------------|--------------
D|--0-----0-----|--0-----0-----|-----0-----0--|-----0-----0--|--0-----0-----|--0-----0-----
A|-----0-----0--|-----0-----0--|--------------|--------------|-----0-----0--|-----0-----0--
E|--------------|--------------|--3-----3-----|--3-----3-----|--------------|--------------

2nd Chorus

G|--------------|--------------|--------------|--------------|-----|--
D|-----0-----0--|-----0-----0--|--2--2--------|--2--2--------|--0--|--
A|--------------|--------------|--------0--0--|--------0--0--|-----|--
E|--3-----3-----|--3-----3-----|--------------|--------------|-----|--

Outro (repeat and fade)

G|--------------|--------------|--------------|--------------
D|--0-----0-----|--0-----0-----|-----0-----0--|-----0-----0--
A|-----0-----0--|-----0-----0--|--------------|--------------
E|--------------|--------------|--3-----3-----|--3-----3-----

							http://www.guitartabcreator.com
Instruments
{"strings":[[[".",".",".",".","|",".",".",".",".","|",".",".",".",".","|",".",".",".",".","|",".",".",".",".","|",".",".",".","."],[0,".",0,".","|",0,".",0,".","|",".",0,".",0,"|",".",0,".",0,"|",0,".",0,".","|",0,".",0,"."],[".",0,".",0,"|",".",0,".",0,"|",".",".",".",".","|",".",".",".",".","|",".",0,".",0,"|",".",0,".",0],[".",".",".",".","|",".",".",".",".","|",3,".",3,".","|",3,".",3,".","|",".",".",".",".","|",".",".",".","."]],[[".",".",".",".","|",".",".",".",".","|",".",".",".",".","|",".",".",".",".","|",".","|"],[".",0,".",0,"|",".",0,".",0,"|",2,2,".",".","|",2,2,".",".","|",0,"|"],[".",".",".",".","|",".",".",".",".","|",".",".",0,0,"|",".",".",0,0,"|",".","|"],[3,".",3,".","|",3,".",3,".","|",".",".",".",".","|",".",".",".",".","|",".","|"]],[[".",".",".",".","|",".",".",".",".","|",".",".",".",".","|",".",".",".","."],[0,".",0,".","|",0,".",0,".","|",".",0,".",0,"|",".",0,".",0],[".",0,".",0,"|",".",0,".",0,"|",".",".",".",".","|",".",".",".","."],[".",".",".",".","|",".",".",".",".","|",3,".",3,".","|",3,".",3,"."]]],"numberofstrings":4,"notes":["G","D","A","E"],"capo":0,"stringnotes":["G2","D2","A1","E1"],"comments":["1st Chorus","2nd Chorus","Outro (repeat and fade)"],"timing":[["Q","Q","Q","Q",null,"Q","Q","Q","Q",null,"Q","Q","Q","Q",null,"Q","Q","Q","Q",null,"Q","Q","Q","Q",null,"Q","Q","Q","Q"],["Q","Q","Q","Q",null,"Q","Q","Q","Q",null,"Q","Q","Q","Q",null,"Q","Q","Q","Q",null,"Q"],["Q","Q","Q","Q",null,"Q","Q","Q","Q",null,"Q","Q","Q","Q",null,"Q","Q","Q","Q"]],"timingvisible":false,"tabcounter":19,"stave":2,"totalstaves":3,"instrument":"4bass","selectedtuning":"4bass","version":"13"}

Member for

3 years 9 months
Submitted by lancegragg on Thu, 2020-10-15 16:28