Ex's & oh's

Chords

01234567891011121314151617181920212223
E
B
G
D
A
E
B
0 1 2 3 4 5 6 7 8 9 10 11 12 13 14 15 16 17 18 19 20 21 22 23
(/) Slide Up  (\) Slide Down  (h) Hammer On  (p) Pull Off  (b) Bend (r) Release (v) Vibrato

Stave 1:

G|-----------------------------------------------------------------------------
D|-----------------------------------------------------------------------------
A|-7-7---5-5-7-7---5-5-7-7---5-5-7-7---5-------9-9-------9-9-7-7---5-5-7-7---5-
E|-----7---------7---------7---------7---7-7-7-----7-7-7---------7---------7---

Stave 2:

G|-----------------------------------------------------------
D|-----------------------------------------------------------
A|---------5-5-5-5-7-7-7-7-----------------5-5-5-5-7\7\7\7-5-
E|-3-3-3-3-----------------7-7-7-7-3-3-3-3-------------------

							http://www.guitartabcreator.com
Instruments
{"strings":[[[".",".",".",".",".",".",".",".",".",".",".",".",".",".",".",".",".",".",".",".",".",".",".",".",".",".",".",".",".",".",".",".",".",".",".",".",".","."],[".",".",".",".",".",".",".",".",".",".",".",".",".",".",".",".",".",".",".",".",".",".",".",".",".",".",".",".",".",".",".",".",".",".",".",".",".","."],[7,7,".",5,5,7,7,".",5,5,7,7,".",5,5,7,7,".",5,".",".",".",9,9,".",".",".",9,9,7,7,".",5,5,7,7,".",5],[".",".",7,".",".",".",".",7,".",".",".",".",7,".",".",".",".",7,".",7,7,7,".",".",7,7,7,".",".",".",".",7,".",".",".",".",7,"."]],[[".",".",".",".",".",".",".",".",".",".",".",".",".",".",".",".",".",".",".",".",".",".",".",".",".",".",".",".",".",".",".","."],[".",".",".",".",".",".",".",".",".",".",".",".",".",".",".",".",".",".",".",".",".",".",".",".",".",".",".",".",".",".",".","."],[".",".",".",".",5,5,5,5,7,7,7,7,".",".",".",".",".",".",".",".",5,5,5,5,7,"\\",7,"\\",7,"\\",7,5],[3,3,3,3,".",".",".",".",".",".",".",".",7,7,7,7,3,3,3,3,".",".",".",".",".",".",".",".",".",".",".","."]]],"numberofstrings":4,"notes":["G","D","A","E"],"capo":0,"stringnotes":["G2","D2","A1","E1"],"comments":["Stave 1:","Stave 2:"],"timing":[[null,"E","E","E","E","E","E","E","E","E","E","E","E","E","E","E","E","E","E","E","E","E","E","E","E","E","E","E","E","E","E","E","E","E","E","E","E","E"],["E","E","E","E","E","E","E","E","E","E","E","E","E","E","E","E","E","E","E","E","E","E","E","E","E",null,"E",null,"E",null,"E","E"]],"timingvisible":false,"tabcounter":32,"stave":1,"totalstaves":2,"instrument":"4bass","selectedtuning":"4bass","version":"13"}

Member for

3 years 9 months
Submitted by lancegragg on Thu, 2020-10-15 08:59