Ten Fills - Fill 1 Minor and Major

01234567891011121314151617181920212223
E
B
G
D
A
E
B
0 1 2 3 4 5 6 7 8 9 10 11 12 13 14 15 16 17 18 19 20 21 22 23
(/) Slide Up  (\) Slide Down  (h) Hammer On  (p) Pull Off  (b) Bend (r) Release (v) Vibrato

Stave 1:

E|--3--|-----------|--------------|--
B|--3--|-----------|----------11--|--
G|--3--|--------3--|--10--12------|--
D|--5--|--3--5-----|--------------|--
A|--5--|-----------|--------------|--
E|--3--|-----------|--------------|--

Stave 2:

E|--3-----------|------------------|--
B|--3-----------|--12--------------|--
G|--4--------5--|--12----------15--|--
D|--5--5--7-----|--12--15--17------|--
A|--5-----------|--10--------------|--
E|--3-----------|------------------|--

							http://www.guitartabcreator.com
Chords

Instruments
{"strings":[[[3,"|",".",".",".","|",".",".",".","|"],[3,"|",".",".",".","|",".",".",11,"|"],[3,"|",".",".",3,"|",10,12,".","|"],[5,"|",3,5,".","|",".",".",".","|"],[5,"|",".",".",".","|",".",".",".","|"],[3,"|",".",".",".","|",".",".",".","|"]],[[3,".",".",".","|",".",".",".",".","|"],[3,".",".",".","|",12,".",".",".","|"],[4,".",".",5,"|",12,".",".",15,"|"],[5,5,7,".","|",12,15,17,".","|"],[5,".",".",".","|",10,".",".",".","|"],[3,".",".",".","|",".",".",".",".","|"]]],"numberofstrings":6,"notes":["E","B","G","D","A","E","B"],"capo":0,"stringnotes":["E4","B3","G3","D3","A2","E2"],"comments":["Stave 1:","Stave 2:","Stave 3:"],"timing":[["W",null,"W","W","W",null,"W","W","W",null,"W","W","W",null,"W","W","W"],["W","W","W","W","W","W","W","W","W"],["W","W","W"]],"timingvisible":false,"tabcounter":10,"stave":1,"totalstaves":2,"instrument":"6guitar","selectedtuning":"6_standard","version":"13"}

Member for

1 year 5 months
Submitted by lameblindbob on Sat, 2021-02-20 18:11