Fills

Chords

01234567891011121314151617181920212223
E
B
G
D
A
E
B
0 1 2 3 4 5 6 7 8 9 10 11 12 13 14 15 16 17 18 19 20 21 22 23
(/) Slide Up  (\) Slide Down  (h) Hammer On  (p) Pull Off  (b) Bend (r) Release (v) Vibrato

Stave 1:

E|-------------|-------------|-
B|-------------|-------------|-
G|-------------|-------------|-
D|-------------|-7-5---5-6-7-|-
A|-7-5---5-6-7-|-----7-------|-
E|-----7-------|-------------|-

Stave 2:

E|---------------------|---------------------|------------------7----------7----
B|---------------------|---------------------|------------------7----------7----
G|---------------------|-9----7-----7------9-|-9----------------7----------7----
D|-7-------------------|-9------7-9---9----9-|-9----9-7-9------------9-7--------
A|-7----7-----5---7----|-7-----------------7-|-7----------7-8-9----------9------
E|-5------5-7---7------|---------------------|----------------------------------

							http://www.guitartabcreator.com
Instruments
{"title":"","strings":[[[".",".",".",".",".",".","|",".",".",".",".",".",".","|"],[".",".",".",".",".",".","|",".",".",".",".",".",".","|"],[".",".",".",".",".",".","|",".",".",".",".",".",".","|"],[".",".",".",".",".",".","|",7,5,".",5,6,7,"|"],[7,5,".",5,6,7,"|",".",".",7,".",".",".","|"],[".",".",7,".",".",".","|",".",".",".",".",".",".","|"]],[[".","_",".",".",".",".",".",".","_","|",".","_",".",".",".",".",".","_",".","|",".","_",".",".",".",".",".",".",7,"_",".",".",".",7,"_"],[".","_",".",".",".",".",".",".","_","|",".","_",".",".",".",".",".","_",".","|",".","_",".",".",".",".",".",".",7,"_",".",".",".",7,"_"],[".","_",".",".",".",".",".",".","_","|",9,"_",7,".",".",7,".","_",9,"|",9,"_",".",".",".",".",".",".",7,"_",".",".",".",7,"_"],[7,"_",".",".",".",".",".",".","_","|",9,"_",".",7,9,".",9,"_",9,"|",9,"_",9,7,9,".",".",".",".","_",9,7,".",".","_"],[7,"_",7,".",".",5,".",7,"_","|",7,"_",".",".",".",".",".","_",7,"|",7,"_",".",".",".",7,8,9,".","_",".",".",9,".","_"],[5,"_",".",5,7,".",7,".","_","|",".","_",".",".",".",".",".","_",".","|",".","_",".",".",".",".",".",".",".","_",".",".",".",".","_"]]],"numberofstrings":6,"notes":["E","B","G","D","A","E","B"],"capo":0,"stringnotes":["E4","B3","G3","D3","A2","E2"],"comments":["Stave 1:","Stave 2:"],"timing":[["W","W","W","W","W","W",null,"W","W","W","W","W","W"],["W",null,"W","W","W","W","W","W",null,null,"W",null,"W","W","W","W","W",null,"W",null,"W",null,"W","W","W","W","W","W","W",null,"W","W","W","W"]],"timingvisible":false,"tabcounter":35,"stave":1,"totalstaves":2,"instrument":"6guitar","selectedtuning":"6_standard","version":"13"}

Member for

10 months 1 week
Submitted by lameblindbob on Thu, 2020-03-12 23:30