Cmon and Make Love - 01

Chords

01234567891011121314151617181920212223
E
B
G
D
A
E
B
0 1 2 3 4 5 6 7 8 9 10 11 12 13 14 15 16 17 18 19 20 21 22 23
(/) Slide Up  (\) Slide Down  (h) Hammer On  (p) Pull Off  (b) Bend (r) Release (v) Vibrato

Stave 1:

E|-------------------------------------|-
B|-------------------------------------|-
G|-9-9-9-9-9-9----9----9-9-9------4----|-
D|-7-7-7-7-7-7----9----7-7-7----4-4----|-
A|----------------7-------------4-2----|-
E|------------------------------2------|-

Stave 2:

E|------------------------------------------------
B|---------------------------12-17-17-17-17-19-19-
G|--------------9-11-11-9-------------------------
D|-9-9-11----11-----------11----------------------
A|------------------------------------------------
E|------------------------------------------------

							http://www.guitartabcreator.com
Instruments
{"strings":[[[".",".",".",".",".",".","_",".","_",".",".",".","_",".",".","_","|"],[".",".",".",".",".",".","_",".","_",".",".",".","_",".",".","_","|"],[9,9,9,9,9,9,"_",9,"_",9,9,9,"_",".",4,"_","|"],[7,7,7,7,7,7,"_",9,"_",7,7,7,"_",4,4,"_","|"],[".",".",".",".",".",".","_",7,"_",".",".",".","_",4,2,"_","|"],[".",".",".",".",".",".","_",".","_",".",".",".","_",2,".","_","|"]],[[".",".",".","_",".",".",".",".",".",".",".",".",".",".",".",".","."],[".",".",".","_",".",".",".",".",".",".",12,17,17,17,17,19,19],[".",".",".","_",".",9,11,11,9,".",".",".",".",".",".",".","."],[9,9,11,"_",11,".",".",".",".",11,".",".",".",".",".",".","."],[".",".",".","_",".",".",".",".",".",".",".",".",".",".",".",".","."],[".",".",".","_",".",".",".",".",".",".",".",".",".",".",".",".","."]]],"numberofstrings":6,"notes":["E","B","G","D","A","E","B"],"capo":0,"stringnotes":["E4","B3","G3","D3","A2","E2"],"comments":["Stave 1:","Stave 2:"],"timing":[["W","W","W","W","W","W",null,"W",null,"W","W","W",null,"W","W"],["W","W","W",null,"W","W","W","W","W","W","W","W","W","W","W","W","W"]],"timingvisible":false,"tabcounter":17,"stave":1,"totalstaves":2,"instrument":"6guitar","selectedtuning":"6_standard","version":"13"}

Member for

10 months 3 weeks
Submitted by lameblindbob on Sat, 2020-08-01 21:12