Sound will begin in 5 seconds

Alone on Guitar pg 12a

01234567891011121314151617181920212223
E
B
G
D
A
E
B
0 1 2 3 4 5 6 7 8 9 10 11 12 13 14 15 16 17 18 19 20 21 22 23
(/) Slide Up  (\) Slide Down  (h) Hammer On  (p) Pull Off  (b) Bend (r) Release (v) Vibrato

Stave 1:

E|-----------------|-
B|-----5-7/8-7-5---|-
G|-4/7-----------7-|-
D|-----------------|-
A|-----------------|-
E|-----------------|-

Stave 2:

E|-----5---------5------|-
B|-------5---8-8---8----|-
G|-5/7------------------|-
D|----------------------|-
A|----------------------|-
E|----------------------|-

Stave 3:

E|-3-0h3p0---0------------|-
B|---------3--------------|-
G|-------------3\2--------|-
D|-----------------2p0----|-
A|------------------------|-
E|------------------------|-

							http://www.guitartabcreator.com
Note:
Guitar Tab Creator is intended to store guitar tab created through the tool. It currently does not support in-line text editing. Any text you place in here will be lost. If you need to comment on your tab, please use the "Tab Notes" section located below.