Sound will begin in 5 seconds

Alone on Guitar gs 22 and 12

Chords
01234567891011121314151617181920212223
E
B
G
D
A
E
B
0 1 2 3 4 5 6 7 8 9 10 11 12 13 14 15 16 17 18 19 20 21 22 23
(/) Slide Up  (\) Slide Down  (h) Hammer On  (p) Pull Off  (b) Bend (r) Release (v) Vibrato

Stave 1:

E|-3-0---0-----0------------|-
B|-----3--------------------|-
G|---------2/4---4\2-0------|-
D|---------------------2----|-
A|--------------------------|-
E|--------------------------|-

Stave 2:

E|-----------7------11-9-7----|-
B|----------------------------|-
G|-----4-6/8---8/11----9-8----|-
D|----------------------------|-
A|-4/6------------------------|-
E|----------------------------|-

Stave 3:

E|-----5---3---2----|-
B|------------------|-
G|-4/6---4---2------|-
D|------------------|-
A|------------------|-
E|------------------|-

							http://www.guitartabcreator.com
Note:
Guitar Tab Creator is intended to store guitar tab created through the tool. It currently does not support in-line text editing. Any text you place in here will be lost. If you need to comment on your tab, please use the "Tab Notes" section located below.