Sound will begin in 5 seconds

Daisy - Kyoukai no Kanata

Chords
01234567891011121314151617181920212223
E
B
G
D
A
E
B
0 1 2 3 4 5 6 7 8 9 10 11 12 13 14 15 16 17 18 19 20 21 22 23
Song Science #1: How Pros Use 6 Chords to Write Hit Songs
(/) Slide Up  (\) Slide Down  (h) Hammer On  (p) Pull Off  (b) Bend (r) Release (v) Vibrato

Stave 1:

E|----------------------------------------------------
B|-----------1-0---------------------1-0--------------
G|-0----2--------2-0-------0----2----------0----------
D|-2----0----------2-------2----0--------2-0----------
A|-2----0----------3-------2----0----------3----------
E|-0----2----3-------------0----2----3----------------

Stave 2:

E|---------------x-----------x---------x--------------
B|---0-0---------x-----0-1-0-x---------x------0-0-----
G|-0-----2p0-2-2-x-0h2-------x---------x----0-----2p0-
D|-2-----0-------x-----------x-0-2p0---x----2---------
A|-2-----0-------x-----------x---3---3-x----2---------
E|-0-----2-------x-----3-----x---------x----0-----2---

Stave 3:

E|-----x-----------x-------x------------------x---------
B|-----x-----0-1-0-x-------x------0-0---------x-----0-1-
G|-----x-0h2-------x-2-2-0-x----0-----2p0-2-2-x-0h2-----
D|-2-2-x-----------x-------x----2-------------x---------
A|-----x-----------x---3---x----2-------------x---------
E|-----x-----3-----x-------x----0-------------x-----3---

Stave 4:

E|---x-------------------------------------x-------x-----
B|-0-x-------------------------------0-1-0-x-------x-----
G|---x--------2-0---------4-2----0-2-------x-2-2-0-x---2-
D|---x-0-2------------2-----0--------------x-------x-0---
A|---x---3----------2-------0--------------x---3---x-----
E|---x------------0-----0---2--------3-----x-------x-----

Stave 5:

E|--------------------------------------------------------------
B|-3-------------0-----1----1p0--------3------------------------
G|-2-0-2---2-0-2-0-0-0-0-------------2-2-0----2---2-0---0-------
D|-0-----0-------------2-----------0---0--------0-----4-----4-2-
A|---------------------3----------------------------------0-----
E|---------------0----------------------------------------------

Stave 6:

E|-----3-----------2-3----2-0-------------------
B|-----3-------3-3---3--------3-3---1-0---0---0-
G|-2-0-0-------0-0---0----------2-2---0-----2-0-
D|-------------2-2--------------0-------0-------
A|-2---3-------------3--------------------------
E|-------------0-0--------------------3-------0-

Stave 7:

E|---------------------------------------------2-3-2-0---
B|-0---------------------------------------3-3---3-----3-
G|---0h2-4-4-0h2-4-5-4----2-0---0----------0-0---0-------
D|-------------------0--------4---0--------2-2-----------
A|---------4-------------------------------------3-------
E|------------------------------3---3-2----0-------------

Stave 8:

E|-----5-3-2----------------------------------3-------
B|-3-3---3---3----0-0-------------------------3-------
G|-2-----0--------0---0h2-4-4-0-2-4-5-4-2-0---0-0-----
D|-0-----0----------------------------0-----4---------
A|------------------------3---------------------------
E|-------3--------0---------------------------3---3-2-

Stave 9:

E|---0--------5-x-3----------------------------x--------
B|-0-0-1-3----3-x-1----------0-----------------x--------
G|-0-0---2----2-x-0----0-0-0---0----0----2-4-2-x----0-2-
D|-2-2---0------x-2-----------------2--------0-x--------
A|--------------x-0-----------------2--------0-x--------
E|-0------------x-------------------0--------2-x--------

Stave 10:

E|-------x-----x---------------x--------------x---12-
B|-0-1-0-x-----x---------------x--------0-1-0-x---12-
G|-0-----x-----x----0----2-4-2-x----0-2-0-----x-0-12-
D|-------x-0-2-x----2--------0-x--------------x------
A|-------x---3-x----2--------0-x--------------x------
E|-3-----x-----x----0--------2-x--------3-----x------

http://www.guitartabcreator.com
Guitar Tab Creator is intended to store guitar tab created through the tool. It currently does not support in-line text editing. Any text you place in here will be lost. If you need to comment on your tab, please use the "Tab Notes" section located below.