Sound will begin in 5 seconds

Regocijate Oh Moradora De Sion

Chords
01234567891011121314151617181920212223
E
B
G
D
A
E
B
0 1 2 3 4 5 6 7 8 9 10 11 12 13 14 15 16 17 18 19 20 21 22 23
(/) Slide Up  (\) Slide Down  (h) Hammer On  (p) Pull Off  (b) Bend (r) Release (v) Vibrato

Stave 1:

E|-----------------------------------------------------------------7--10-----------------------------------------------------------------10--12v--
B|--12--12--10--10--12----------------12--12--10--10--12-----8---------------12--12--10--10--12-------------12--12--10--10--10h12--7--8-----------
G|----------------------9--11--12-------------------------9-----9--------------------------------9--11--12----------------------------------------
D|------------------------------------------------------------------------------------------------------------------------------------------------
A|------------------------------------------------------------------------------------------------------------------------------------------------
E|------------------------------------------------------------------------------------------------------------------------------------------------

Stave 2:

E|-------------------------------------------------------------------------------------
B|-------------------------------------------------------------------------------------
G|--12--11------9-----12--12--12--12--12--11--11--11--9------9-----9--9--8-----9--11v--
D|----------12-------------------------------------------12----------------------------
A|-------------------------------------------------------------------------------------
E|-------------------------------------------------------------------------------------

Stave 3:

E|------------------------------------------------------------------------------------------------------------------------------------------
B|--12--12--12--12--12--10--10--10--8--7--8-----8--8--7--8--10-----12--12--12--12--12/15--15--15-----12--12--13-----10--10--12--5/8--7--5v--
G|------------------------------------------------------------------------------------------------------------------------------------------
D|------------------------------------------------------------------------------------------------------------------------------------------
A|------------------------------------------------------------------------------------------------------------------------------------------
E|------------------------------------------------------------------------------------------------------------------------------------------

Stave 4:

E|---------------------------------------------------------------------------------------
B|-------------------------11--11--11--11--11--10--10--10--8------8-----8--8--7--8--10v--
G|------------------------------------------------------------10-------------------------
D|---------------------------------------------------------------------------------------
A|---------7--9--10----------------------------------------------------------------------
E|--7--10--------------------------------------------------------------------------------

Stave 5:

E|------------------------------------------------------------------------------------------
B|------------------------------------------------------------------------------------------
G|--8--8-----10-------------------------------------8--8-----10-----------------------------
D|--8--8-----10---------------------------8--10-----8--8-----10---------8--10------------8--
A|--6--6-----8------10--10--8------8--10------------6--6-----8---8--10---------6--8--10-----
E|-----------------------------10-----------------------------------------------------------

http://www.guitartabcreator.com
Guitar Tab Creator is intended to store guitar tab created through the tool. It currently does not support in-line text editing. Any text you place in here will be lost. If you need to comment on your tab, please use the "Tab Notes" section located below.