Sound will begin in 5 seconds

Me Vuelvo a ti

01234567891011121314151617181920212223
E
B
G
D
A
E
B
0 1 2 3 4 5 6 7 8 9 10 11 12 13 14 15 16 17 18 19 20 21 22 23
(/) Slide Up  (\) Slide Down  (h) Hammer On  (p) Pull Off  (b) Bend (r) Release (v) Vibrato

Capo Fret 4

Stave 1:

E|----------12--11------------4--------4--------4--------4----------7----------4--
B|------12----------12-----7--------7--------7--------7----------5----------7-----
G|--13------------------8--------8--------9--------9--------9\6--------6/8--------
D|--------------------------------------------------------------------------------
A|--------------------------------------------------------------------------------
E|--------------------------------------------------------------------------------

Stave 2:

E|--------------------------------------------------------------------------------------------------14--14--
B|--17--17--17--16--16--12--12--12--9--9--9--7--7-----------17--17--17--16--16--12--12--12--10--10----------
G|-------------------------------------------------9--9--9--------------------------------------------------
D|----------------------------------------------------------------------------------------------------------
A|----------------------------------------------------------------------------------------------------------
E|----------------------------------------------------------------------------------------------------------

Stave 3:

E|--12--12--11--11--
B|------------------
G|------------------
D|------------------
A|------------------
E|------------------

Stave 4:

E|-------------------------------------------------------------9------9---------11------11---------12------12------16------16--
B|--17--17--17--16--16--12--12--12--9--9--9--7--7--9--9--9/10-----10-----10/12------12------12/14------14------14------14------
G|-----------------------------------------------------------------------------------------------------------------------------
D|-----------------------------------------------------------------------------------------------------------------------------
A|-----------------------------------------------------------------------------------------------------------------------------
E|-----------------------------------------------------------------------------------------------------------------------------

http://www.guitartabcreator.com
Guitar Tab Creator is intended to store guitar tab created through the tool. It currently does not support in-line text editing. Any text you place in here will be lost. If you need to comment on your tab, please use the "Tab Notes" section located below.