Sound will begin in 5 seconds

Frank Federsel - Ein Ort fuer meine Traume, Sonnenuntergang

01234567891011121314151617181920212223
E
B
G
D
A
E
B
0 1 2 3 4 5 6 7 8 9 10 11 12 13 14 15 16 17 18 19 20 21 22 23
Song Science #1: How Pros Use 6 Chords to Write Hit Songs
(/) Slide Up  (\) Slide Down  (h) Hammer On  (p) Pull Off  (b) Bend (r) Release (v) Vibrato

Stave 1:

E|-----------------------------8--11--15--20--20--20--
B|--------------------------8-------------------------
G|--------------------5--8----------------------------
D|-----------------5----------------------------------
A|-----------3--6-------------------------------------
E|--------3-------------------------------------------
B|--1--4----------------------------------------------

Stave 2:

E|------15------20------22------23------22------20------
B|----------16------16------16------16------16------16--
G|------------------------------------------------------
D|------------------------------------------------------
A|------------------------------------------------------
E|------------------------------------------------------
B|------------------------------------------------------

Stave 3:

E|--18------15--------------15----------------------
B|------------------18--------------16------16------
G|------15------15------15------15------15------15--
D|--------------------------------------------------
A|--------------------------------------------------
E|--------------------------------------------------
B|--------------------------------------------------

Stave 4:

E|--16------15--------------16------15--------------
B|------------------16----------------------16------
G|------13------13------13------13------13------13--
D|--------------------------------------------------
A|--------------------------------------------------
E|--------------------------------------------------
B|--------------------------------------------------

Stave 5:

E|--13------11------10------11------------------
B|----------------------------------11------11--
G|------10------10------10------10------10------
D|----------------------------------------------
A|----------------------------------------------
E|----------------------------------------------
B|----------------------------------------------

http://www.guitartabcreator.com
Guitar Tab Creator is intended to store guitar tab created through the tool. It currently does not support in-line text editing. Any text you place in here will be lost. If you need to comment on your tab, please use the "Tab Notes" section located below.