Sound will begin in 5 seconds

ON REPEAT

Chords
01234567891011121314151617181920212223
E
B
G
D
A
E
B
0 1 2 3 4 5 6 7 8 9 10 11 12 13 14 15 16 17 18 19 20 21 22 23
(/) Slide Up  (\) Slide Down  (h) Hammer On  (p) Pull Off  (b) Bend (r) Release (v) Vibrato

Intro repeat 2X

E|------------------------------------------------------------------------------|--
B|------------------------------------------------------------------------------|--
G|----------10--9-------------10--9--7-------------10--9-------------12--10--9--|--
D|------10----------------10-------------------10----------------10-------------|--
A|--12----------------12-------------------12----------------12-----------------|--
E|------------------------------------------------------------------------------|--

this part idk similj

E|----------------------------------------------------
B|--3\5--5--------3\5--3--------3\5--5--------3/1--0--
G|----------------------------------------------------
D|----------------------------------------------------
A|----------------------------------------------------
E|----------------------------------------------------

This intense part ah u repeat twice 2X

E|----------------------------------------------------------------------------------------------------------------------|--
B|----------------------------------------------------------------------------------------------------------------------|--
G|----------10--9--10--9--10--9----------10--9--10--9--10--9----------12--9--12--9--12--9----------12--9--12--9--12--9--|--
D|------10---------------------------10---------------------------10---------------------------10-----------------------|--
A|--12---------------------------12---------------------------12---------------------------12---------------------------|--
E|----------------------------------------------------------------------------------------------------------------------|--

Repeat until u happy 16X actually but u must listen to the chords

E|--------------
B|-----0--1--3--
G|--1-----------
D|--------------
A|--------------
E|--------------

REPEAT INTRO 2X AGAIN THEN PLAY THIS

E|------------------------------------
B|------------------------------------
G|--7--9-----7--9-----7--9------------
D|-----------------------------10--7--
A|------------------------------------
E|------------------------------------

LEFT SIDE REPEAT 7X RIGHT ONE IS U PLAY LAST CB

E|-----------------------------|-----------------
B|--5--3-----------------3--5--|--5--3-----------
G|--------5--4--2--4--5--------|--------5--4--2--
D|-----------------------------|-----------------
A|-----------------------------|-----------------
E|-----------------------------|-----------------

INTERLUDE REPEAT 2X

E|-----------------------------------
B|-----------------------------------
G|-----2--------4--------5--------4--
D|-----3--------5--------7--------5--
A|-----3--------5--------7--------5--
E|-----1--------3--------5--------3--

Stave 8:

E|--12--10--------------12--10--------------12--10--------------12--10--------------|--12--10--------------12--10--------------12--10--------------12--10----------
B|----------12--10--10----------12--10--10----------13--12--12----------13--12--12--|----------12--10--10----------12--10--10----------13--12--12----------12--10--
G|----------------------------------------------------------------------------------|------------------------------------------------------------------------------
D|----------------------------------------------------------------------------------|------------------------------------------------------------------------------
A|----------------------------------------------------------------------------------|------------------------------------------------------------------------------
E|----------------------------------------------------------------------------------|------------------------------------------------------------------------------

ENDING JUST REPEAT THE INTRO 2X WITH THIS AT THE END

E|--------
B|--------
G|--7--9--
D|--------
A|--------
E|--------

http://www.guitartabcreator.com
Guitar Tab Creator is intended to store guitar tab created through the tool. It currently does not support in-line text editing. Any text you place in here will be lost. If you need to comment on your tab, please use the "Tab Notes" section located below.